  0
SECTION
  2
HEADER
  9
$ACADVER
  1
AC1009
  9
$DWGCODEPAGE
  3
ansi_1252
  9
$INSBASE
 10
0.0
 20
0.0
 30
0.0
  9
$EXTMIN
 10
8.793619111937062
 20
12.40555171014437
 30
0.0
  9
$EXTMAX
 10
489.7723539508922
 20
423.022345929397
 30
0.0
  9
$LIMMIN
 10
0.0
 20
0.0
  9
$LIMMAX
 10
12.0
 20
9.0
  9
$ORTHOMODE
 70
     0
  9
$REGENMODE
 70
     1
  9
$FILLMODE
 70
     1
  9
$QTEXTMODE
 70
     0
  9
$MIRRTEXT
 70
     1
  9
$DRAGMODE
 70
     2
  9
$LTSCALE
 40
1.0
  9
$OSMODE
 70
    37
  9
$ATTMODE
 70
     1
  9
$TEXTSIZE
 40
0.2
  9
$TRACEWID
 40
0.05
  9
$TEXTSTYLE
  7
STANDARD
  9
$CLAYER
  8
0
  9
$CELTYPE
  6
BYLAYER
  9
$CECOLOR
 62
   256
  9
$DIMSCALE
 40
1.0
  9
$DIMASZ
 40
0.18
  9
$DIMEXO
 40
0.0625
  9
$DIMDLI
 40
0.38
  9
$DIMRND
 40
0.0
  9
$DIMDLE
 40
0.0
  9
$DIMEXE
 40
0.18
  9
$DIMTP
 40
0.0
  9
$DIMTM
 40
0.0
  9
$DIMTXT
 40
0.18
  9
$DIMCEN
 40
0.09
  9
$DIMTSZ
 40
0.0
  9
$DIMTOL
 70
     0
  9
$DIMLIM
 70
     0
  9
$DIMTIH
 70
     1
  9
$DIMTOH
 70
     1
  9
$DIMSE1
 70
     0
  9
$DIMSE2
 70
     0
  9
$DIMTAD
 70
     0
  9
$DIMZIN
 70
     0
  9
$DIMBLK
  1

  9
$DIMASO
 70
     1
  9
$DIMSHO
 70
     1
  9
$DIMPOST
  1

  9
$DIMAPOST
  1

  9
$DIMALT
 70
     0
  9
$DIMALTD
 70
     2
  9
$DIMALTF
 40
25.4
  9
$DIMLFAC
 40
1.0
  9
$DIMTOFL
 70
     0
  9
$DIMTVP
 40
0.0
  9
$DIMTIX
 70
     0
  9
$DIMSOXD
 70
     0
  9
$DIMSAH
 70
     0
  9
$DIMBLK1
  1

  9
$DIMBLK2
  1

  9
$DIMSTYLE
  2
STANDARD
  9
$DIMCLRD
 70
     0
  9
$DIMCLRE
 70
     0
  9
$DIMCLRT
 70
     0
  9
$DIMTFAC
 40
1.0
  9
$DIMGAP
 40
0.09
  9
$LUNITS
 70
     2
  9
$LUPREC
 70
     4
  9
$SKETCHINC
 40
0.1
  9
$FILLETRAD
 40
0.5
  9
$AUNITS
 70
     0
  9
$AUPREC
 70
     0
  9
$MENU
  1
.
  9
$ELEVATION
 40
0.0
  9
$PELEVATION
 40
0.0
  9
$THICKNESS
 40
0.0
  9
$LIMCHECK
 70
     0
  9
$CHAMFERA
 40
0.0
  9
$CHAMFERB
 40
0.0
  9
$SKPOLY
 70
     0
  9
$TDCREATE
 40
2454910.5
  9
$TDUPDATE
 40
2459387.773796204
  9
$TDINDWG
 40
0.0000000116
  9
$TDUSRTIMER
 40
0.0000000116
  9
$USRTIMER
 70
     1
  9
$ANGBASE
 50
0.0
  9
$ANGDIR
 70
     0
  9
$PDMODE
 70
     0
  9
$PDSIZE
 40
0.0
  9
$PLINEWID
 40
0.0
  9
$COORDS
 70
     1
  9
$SPLFRAME
 70
     0
  9
$SPLINETYPE
 70
     6
  9
$SPLINESEGS
 70
     8
  9
$ATTDIA
 70
     0
  9
$ATTREQ
 70
     1
  9
$HANDLING
 70
     1
  9
$HANDSEED
  5
A9F
  9
$SURFTAB1
 70
     6
  9
$SURFTAB2
 70
     6
  9
$SURFTYPE
 70
     6
  9
$SURFU
 70
     6
  9
$SURFV
 70
     6
  9
$UCSNAME
  2

  9
$UCSORG
 10
0.0
 20
0.0
 30
0.0
  9
$UCSXDIR
 10
1.0
 20
0.0
 30
0.0
  9
$UCSYDIR
 10
0.0
 20
1.0
 30
0.0
  9
$PUCSNAME
  2

  9
$PUCSORG
 10
0.0
 20
0.0
 30
0.0
  9
$PUCSXDIR
 10
1.0
 20
0.0
 30
0.0
  9
$PUCSYDIR
 10
0.0
 20
1.0
 30
0.0
  9
$USERI1
 70
     0
  9
$USERI2
 70
     0
  9
$USERI3
 70
     0
  9
$USERI4
 70
     0
  9
$USERI5
 70
     0
  9
$USERR1
 40
0.0
  9
$USERR2
 40
0.0
  9
$USERR3
 40
0.0
  9
$USERR4
 40
0.0
  9
$USERR5
 40
0.0
  9
$WORLDVIEW
 70
     1
  9
$SHADEDGE
 70
     3
  9
$SHADEDIF
 70
    70
  9
$TILEMODE
 70
     1
  9
$MAXACTVP
 70
    64
  9
$PLIMCHECK
 70
     0
  9
$PEXTMIN
 10
1.000000000000000E+20
 20
1.000000000000000E+20
 30
1.000000000000000E+20
  9
$PEXTMAX
 10
-1.000000000000000E+20
 20
-1.000000000000000E+20
 30
-1.000000000000000E+20
  9
$PLIMMIN
 10
0.0
 20
0.0
  9
$PLIMMAX
 10
12.0
 20
9.0
  9
$UNITMODE
 70
     0
  9
$VISRETAIN
 70
     1
  9
$PLINEGEN
 70
     0
  9
$PSLTSCALE
 70
     1
  0
ENDSEC
  0
SECTION
  2
TABLES
  0
TABLE
  2
VPORT
 70
     1
  0
VPORT
  2
*ACTIVE
 70
     0
 10
0.0
 20
0.0
 11
1.0
 21
1.0
 12
10.42990654205607
 22
4.5
 13
0.0
 23
0.0
 14
0.5
 24
0.5
 15
0.5
 25
0.5
 16
0.0
 26
0.0
 36
1.0
 17
0.0
 27
0.0
 37
0.0
 40
9.0
 41
1.972972972850329
 42
50.0
 43
0.0
 44
0.0
 50
0.0
 51
0.0
 71
     0
 72
   100
 73
     1
 74
     3
 75
     0
 76
     0
 77
     0
 78
     0
  0
ENDTAB
  0
TABLE
  2
LTYPE
 70
     2
  0
LTYPE
  2
CONTINUOUS
 70
     0
  3
Solid line
 72
    65
 73
     0
 40
0.0
  0
LTYPE
  2
CONTINUOUS2
 70
     0
  3
Solid Line
 72
    65
 73
     0
 40
0.0
  0
ENDTAB
  0
TABLE
  2
LAYER
 70
     3
  0
LAYER
  2
0
 70
     0
 62
     7
  6
CONTINUOUS
  0
LAYER
  2
MAKE2D$VISIBLE$CURVES
 70
     0
 62
    18
  6
CONTINUOUS
  0
LAYER
  2
LAYER_03
 70
     0
 62
    18
  6
CONTINUOUS
  0
ENDTAB
  0
TABLE
  2
STYLE
 70
     1
  0
STYLE
  2
STANDARD
 70
     0
 40
0.0
 41
1.0
 50
0.0
 71
     0
 42
0.2
  3
txt
  4

  0
ENDTAB
  0
TABLE
  2
VIEW
 70
     0
  0
ENDTAB
  0
TABLE
  2
UCS
 70
     0
  0
ENDTAB
  0
TABLE
  2
APPID
 70
     1
  0
APPID
  2
ACAD
 70
     0
  0
ENDTAB
  0
TABLE
  2
DIMSTYLE
 70
     1
  0
DIMSTYLE
  2
STANDARD
 70
     0
  3

  4

  5

  6

  7

 40
1.0
 41
0.18
 42
0.0625
 43
0.38
 44
0.18
 45
0.0
 46
0.0
 47
0.0
 48
0.0
140
0.18
141
0.09
142
0.0
143
25.4
144
1.0
145
0.0
146
1.0
147
0.09
 71
     0
 72
     0
 73
     1
 74
     1
 75
     0
 76
     0
 77
     0
 78
     0
170
     0
171
     2
172
     0
173
     0
174
     0
175
     0
176
     0
177
     0
178
     0
  0
ENDTAB
  0
ENDSEC
  0
SECTION
  2
BLOCKS
  0
BLOCK
  8
0
  2
$MODEL_SPACE
 70
     0
 10
0.0
 20
0.0
 30
0.0
  3
$MODEL_SPACE
  1

  0
ENDBLK
  5
21
  8
0
  0
BLOCK
 67
     1
  8
0
  2
$PAPER_SPACE
 70
     0
 10
0.0
 20
0.0
 30
0.0
  3
$PAPER_SPACE
  1

  0
ENDBLK
  5
1D
 67
     1
  8
0
  0
ENDSEC
  0
SECTION
  2
ENTITIES
  0
POLYLINE
  5
70
  8
MAKE2D$VISIBLE$CURVES
 66
     1
 10
0.0
 20
0.0
 30
0.0
 70
     1
  0
VERTEX
  5
96
  8
MAKE2D$VISIBLE$CURVES
 10
225.862675883851
 20
417.0324922041554
 30
0.0
  0
VERTEX
  5
97
  8
MAKE2D$VISIBLE$CURVES
 10
225.8614709617387
 20
417.1019057231057
 30
0.0
  0
VERTEX
  5
98
  8
MAKE2D$VISIBLE$CURVES
 10
225.8578576472383
 20
417.1712356041722
 30
0.0
  0
VERTEX
  5
99
  8
MAKE2D$VISIBLE$CURVES
 10
225.8518402941118
 20
417.2403983102481
 30
0.0
  0
VERTEX
  5
9A
  8
MAKE2D$VISIBLE$CURVES
 10
225.8434261528028
 20
417.3093105056593
 30
0.0
  0
VERTEX
  5
9B
  8
MAKE2D$VISIBLE$CURVES
 10
225.8326253616952
 20
417.3778891565779
 30
0.0
  0
VERTEX
  5
9C
  8
MAKE2D$VISIBLE$CURVES
 10
225.8194509349005
 20
417.4460516310708
 30
0.0
  0
VERTEX
  5
9D
  8
MAKE2D$VISIBLE$CURVES
 10
225.8039187465775
 20
417.5137157986655
 30
0.0
  0
VERTEX
  5
9E
  8
MAKE2D$VISIBLE$CURVES
 10
225.7860475118032
 20
417.58080012931
 30
0.0
  0
VERTEX
  5
9F
  8
MAKE2D$VISIBLE$CURVES
 10
225.7658587640245
 20
417.647223791611
 30
0.0
  0
VERTEX
  5
A0
  8
MAKE2D$VISIBLE$CURVES
 10
225.7433768291085
 20
417.7129067502289
 30
0.0
  0
VERTEX
  5
A1
  8
MAKE2D$VISIBLE$CURVES
 10
225.7186287960349
 20
417.7777698623145
 30
0.0
  0
VERTEX
  5
A2
  8
MAKE2D$VISIBLE$CURVES
 10
225.6916444842601
 20
417.8417349728698
 30
0.0
  0
VERTEX
  5
A3
  8
MAKE2D$VISIBLE$CURVES
 10
225.6624564077748
 20
417.9047250089187
 30
0.0
  0
VERTEX
  5
A4
  8
MAKE2D$VISIBLE$CURVES
 10
225.6310997359388
 20
417.9666640723737
 30
0.0
  0
VERTEX
  5
A5
  8
MAKE2D$VISIBLE$CURVES
 10
225.5976122510975
 20
418.0274775314878
 30
0.0
  0
VERTEX
  5
A6
  8
MAKE2D$VISIBLE$CURVES
 10
225.5620343030633
 20
418.0870921107792
 30
0.0
  0
VERTEX
  5
A7
  8
MAKE2D$VISIBLE$CURVES
 10
225.5244087604934
 20
418.1454359793233
 30
0.0
  0
VERTEX
  5
A8
  8
MAKE2D$VISIBLE$CURVES
 10
225.4847809592357
 20
418.2024388373025
 30
0.0
  0
VERTEX
  5
A9
  8
MAKE2D$VISIBLE$CURVES
 10
225.443198647703
 20
418.2580320007129
 30
0.0
  0
VERTEX
  5
AA
  8
MAKE2D$VISIBLE$CURVES
 10
225.3997119293427
 20
418.3121484841226
 30
0.0
  0
VERTEX
  5
AB
  8
MAKE2D$VISIBLE$CURVES
 10
225.3543732022636
 20
418.3647230813842
 30
0.0
  0
VERTEX
  5
AC
  8
MAKE2D$VISIBLE$CURVES
 10
225.3072370961
 20
418.4156924442025
 30
0.0
  0
VERTEX
  5
AD
  8
MAKE2D$VISIBLE$CURVES
 10
225.2583604061884
 20
418.4649951584656
 30
0.0
  0
VERTEX
  5
AE
  8
MAKE2D$VISIBLE$CURVES
 10
225.2078020251348
 20
418.5125718182425
 30
0.0
  0
VERTEX
  5
AF
  8
MAKE2D$VISIBLE$CURVES
 10
225.1556228718483
 20
418.5583650973642
 30
0.0
  0
VERTEX
  5
B0
  8
MAKE2D$VISIBLE$CURVES
 10
225.1018858181461
 20
418.6023198184957
 30
0.0
  0
VERTEX
  5
B1
  8
MAKE2D$VISIBLE$CURVES
 10
225.0466556129914
 20
418.6443830196218
 30
0.0
  0
VERTEX
  5
B2
  8
MAKE2D$VISIBLE$CURVES
 10
224.9899988044818
 20
418.6845040178612
 30
0.0
  0
VERTEX
  5
B3
  8
MAKE2D$VISIBLE$CURVES
 10
224.9319836596542
 20
418.7226344705361
 30
0.0
  0
VERTEX
  5
B4
  8
MAKE2D$VISIBLE$CURVES
 10
224.8726800822442
 20
418.7587284334208
 30
0.0
  0
VERTEX
  5
B5
  8
MAKE2D$VISIBLE$CURVES
 10
224.8121595284411
 20
418.7927424161012
 30
0.0
  0
VERTEX
  5
B6
  8
MAKE2D$VISIBLE$CURVES
 10
224.7504949207997
 20
418.8246354343776
 30
0.0
  0
VERTEX
  5
B7
  8
MAKE2D$VISIBLE$CURVES
 10
224.6877605603686
 20
418.854369059647
 30
0.0
  0
VERTEX
  5
B8
  8
MAKE2D$VISIBLE$CURVES
 10
224.6240320371663
 20
418.8819074652068
 30
0.0
  0
VERTEX
  5
B9
  8
MAKE2D$VISIBLE$CURVES
 10
224.559386139099
 20
418.9072174694231
 30
0.0
  0
VERTEX
  5
BA
  8
MAKE2D$VISIBLE$CURVES
 10
224.4939007594385
 20
418.9302685757123
 30
0.0
  0
VERTEX
  5
BB
  8
MAKE2D$VISIBLE$CURVES
 10
224.4276548029684
 20
418.9510330092866
 30
0.0
  0
VERTEX
  5
BC
  8
MAKE2D$VISIBLE$CURVES
 10
224.3607280909046
 20
418.9694857506211
 30
0.0
  0
VERTEX
  5
BD
  8
MAKE2D$VISIBLE$CURVES
 10
224.2932012647235
 20
418.9856045655993
 30
0.0
  0
VERTEX
  5
BE
  8
MAKE2D$VISIBLE$CURVES
 10
224.2251556889915
 20
418.999370032305
 30
0.0
  0
VERTEX
  5
BF
  8
MAKE2D$VISIBLE$CURVES
 10
224.1566733533264
 20
419.0107655644226
 30
0.0
  0
VERTEX
  5
C0
  8
MAKE2D$VISIBLE$CURVES
 10
224.0878367736096
 20
419.0197774312238
 30
0.0
  0
VERTEX
  5
C1
  8
MAKE2D$VISIBLE$CURVES
 10
224.0187288925572
 20
419.0263947741108
 30
0.0
  0
VERTEX
  5
C2
  8
MAKE2D$VISIBLE$CURVES
 10
223.9494329797845
 20
419.0306096197009
 30
0.0
  0
VERTEX
  5
C3
  8
MAKE2D$VISIBLE$CURVES
 10
223.8800325314688
 20
419.0324168894335
 30
0.0
  0
VERTEX
  5
C4
  8
MAKE2D$VISIBLE$CURVES
 10
223.8106111697435
 20
419.0318144056892
 30
0.0
  0
VERTEX
  5
C5
  8
MAKE2D$VISIBLE$CURVES
 10
223.741252541945
 20
419.0288028944141
 30
0.0
  0
VERTEX
  5
C6
  8
MAKE2D$VISIBLE$CURVES
 10
223.6720402198153
 20
419.0233859842447
 30
0.0
  0
VERTEX
  5
C7
  8
MAKE2D$VISIBLE$CURVES
 10
223.6030575988125
 20
419.015570202136
 30
0.0
  0
VERTEX
  5
C8
  8
MAKE2D$VISIBLE$CURVES
 10
223.5343877976221
 20
419.0053649654963
 30
0.0
  0
VERTEX
  5
C9
  8
MAKE2D$VISIBLE$CURVES
 10
223.4661135580064
 20
418.9927825708413
 30
0.0
  0
VERTEX
  5
CA
  8
MAKE2D$VISIBLE$CURVES
 10
223.3983171451055
 20
418.9778381789764
 30
0.0
  0
VERTEX
  5
CB
  8
MAKE2D$VISIBLE$CURVES
 10
223.3310802483184
 20
418.9605497967297
 30
0.0
  0
VERTEX
  5
CC
  8
MAKE2D$VISIBLE$CURVES
 10
223.2644838828665
 20
418.9409382552554
 30
0.0
  0
VERTEX
  5
CD
  8
MAKE2D$VISIBLE$CURVES
 10
223.198608292184
 20
418.9190271849334
 30
0.0
  0
VERTEX
  5
CE
  8
MAKE2D$VISIBLE$CURVES
 10
223.1335328512278
 20
418.894842986897
 30
0.0
  0
VERTEX
  5
CF
  8
MAKE2D$VISIBLE$CURVES
 10
223.0693359708339
 20
418.8684148012209
 30
0.0
  0
VERTEX
  5
D0
  8
MAKE2D$VISIBLE$CURVES
 10
223.0060950032458
 20
418.8397744718107
 30
0.0
  0
VERTEX
  5
D1
  8
MAKE2D$VISIBLE$CURVES
 10
222.9438861488989
 20
418.8089565080324
 30
0.0
  0
VERTEX
  5
D2
  8
MAKE2D$VISIBLE$CURVES
 10
222.8827843646232
 20
418.7759980431322
 30
0.0
  0
VERTEX
  5
D3
  8
MAKE2D$VISIBLE$CURVES
 10
222.8228632733054
 20
418.7409387894932
 30
0.0
  0
VERTEX
  5
D4
  8
MAKE2D$VISIBLE$CURVES
 10
222.7641950751959
 20
418.7038209907853
 30
0.0
  0
VERTEX
  5
D5
  8
MAKE2D$VISIBLE$CURVES
 10
222.7068504609024
 20
418.6646893710651
 30
0.0
  0
VERTEX
  5
D6
  8
MAKE2D$VISIBLE$CURVES
 10
222.6508985262199
 20
418.6235910808862
 30
0.0
  0
VERTEX
  5
D7
  8
MAKE2D$VISIBLE$CURVES
 10
222.596406688871
 20
418.5805756404876
 30
0.0
  0
VERTEX
  5
D8
  8
MAKE2D$VISIBLE$CURVES
 10
222.5434406072755
 20
418.5356948801243
 30
0.0
  0
VERTEX
  5
D9
  8
MAKE2D$VISIBLE$CURVES
 10
222.492064101436
 20
418.4890028776169
 30
0.0
  0
VERTEX
  5
DA
  8
MAKE2D$VISIBLE$CURVES
 10
222.4423390760422
 20
418.440555893192
 30
0.0
  0
VERTEX
  5
DB
  8
MAKE2D$VISIBLE$CURVES
 10
222.3943254458746
 20
418.3904123016922
 30
0.0
  0
VERTEX
  5
DC
  8
MAKE2D$VISIBLE$CURVES
 10
222.3480810636184
 20
418.3386325222398
 30
0.0
  0
VERTEX
  5
DD
  8
MAKE2D$VISIBLE$CURVES
 10
222.3036616501532
 20
418.285278945436
 30
0.0
  0
VERTEX
  5
DE
  8
MAKE2D$VISIBLE$CURVES
 10
222.2611207274113
 20
418.2304158581852
 30
0.0
  0
VERTEX
  5
DF
  8
MAKE2D$VISIBLE$CURVES
 10
222.220509553893
 20
418.1741093662344
 30
0.0
  0
VERTEX
  5
E0
  8
MAKE2D$VISIBLE$CURVES
 10
222.181877062898
 20
418.116427314521
 30
0.0
  0
VERTEX
  5
E1
  8
MAKE2D$VISIBLE$CURVES
 10
222.1452698035683
 20
418.0574392054244
 30
0.0
  0
VERTEX
  5
E2
  8
MAKE2D$VISIBLE$CURVES
 10
222.1107318848017
 20
417.9972161150218
 30
0.0
  0
VERTEX
  5
E3
  8
MAKE2D$VISIBLE$CURVES
 10
222.0783049221
 20
417.9358306074465
 30
0.0
  0
VERTEX
  5
E4
  8
MAKE2D$VISIBLE$CURVES
 10
222.0480279874265
 20
417.8733566474538
 30
0.0
  0
VERTEX
  5
E5
  8
MAKE2D$VISIBLE$CURVES
 10
222.0199375621306
 20
417.8098695112997
 30
0.0
  0
VERTEX
  5
E6
  8
MAKE2D$VISIBLE$CURVES
 10
221.9940674929849
 20
417.7454456960385
 30
0.0
  0
VERTEX
  5
E7
  8
MAKE2D$VISIBLE$CURVES
 10
221.9704489514107
 20
417.6801628273496
 30
0.0
  0
VERTEX
  5
E8
  8
MAKE2D$VISIBLE$CURVES
 10
221.949110395909
 20
417.6140995660052
 30
0.0
  0
VERTEX
  5
E9
  8
MAKE2D$VISIBLE$CURVES
 10
221.930077537777
 20
417.5473355130896
 30
0.0
  0
VERTEX
  5
EA
  8
MAKE2D$VISIBLE$CURVES
 10
221.9133733101281
 20
417.4799511140865
 30
0.0
  0
VERTEX
  5
EB
  8
MAKE2D$VISIBLE$CURVES
 10
221.8990178402537
 20
417.4120275619485
 30
0.0
  0
VERTEX
  5
EC
  8
MAKE2D$VISIBLE$CURVES
 10
221.8870284253772
 20
417.3436466992653
 30
0.0
  0
VERTEX
  5
ED
  8
MAKE2D$VISIBLE$CURVES
 10
221.8774195118104
 20
417.2748909196504
 30
0.0
  0
VERTEX
  5
EE
  8
MAKE2D$VISIBLE$CURVES
 10
221.8702026775455
 20
417.2058430684634
 30
0.0
  0
VERTEX
  5
EF
  8
MAKE2D$VISIBLE$CURVES
 10
221.8653866183068
 20
417.1365863429865
 30
0.0
  0
VERTEX
  5
F0
  8
MAKE2D$VISIBLE$CURVES
 10
221.862977137067
 20
417.0672041921801
 30
0.0
  0
VERTEX
  5
F1
  8
MAKE2D$VISIBLE$CURVES
 10
221.862977137067
 20
416.9977802161316
 30
0.0
  0
VERTEX
  5
F2
  8
MAKE2D$VISIBLE$CURVES
 10
221.8653866183068
 20
416.9283980653252
 30
0.0
  0
VERTEX
  5
F3
  8
MAKE2D$VISIBLE$CURVES
 10
221.8702026775455
 20
416.8591413398483
 30
0.0
  0
VERTEX
  5
F4
  8
MAKE2D$VISIBLE$CURVES
 10
221.8774195118104
 20
416.7900934886613
 30
0.0
  0
VERTEX
  5
F5
  8
MAKE2D$VISIBLE$CURVES
 10
221.8870284253772
 20
416.7213377090464
 30
0.0
  0
VERTEX
  5
F6
  8
MAKE2D$VISIBLE$CURVES
 10
221.8990178402537
 20
416.6529568463632
 30
0.0
  0
VERTEX
  5
F7
  8
MAKE2D$VISIBLE$CURVES
 10
221.9133733101281
 20
416.5850332942252
 30
0.0
  0
VERTEX
  5
F8
  8
MAKE2D$VISIBLE$CURVES
 10
221.930077537777
 20
416.5176488952221
 30
0.0
  0
VERTEX
  5
F9
  8
MAKE2D$VISIBLE$CURVES
 10
221.949110395909
 20
416.4508848423065
 30
0.0
  0
VERTEX
  5
FA
  8
MAKE2D$VISIBLE$CURVES
 10
221.9704489514107
 20
416.3848215809621
 30
0.0
  0
VERTEX
  5
FB
  8
MAKE2D$VISIBLE$CURVES
 10
221.9940674929849
 20
416.3195387122732
 30
0.0
  0
VERTEX
  5
FC
  8
MAKE2D$VISIBLE$CURVES
 10
222.0199375621306
 20
416.255114897012
 30
0.0
  0
VERTEX
  5
FD
  8
MAKE2D$VISIBLE$CURVES
 10
222.0480279874265
 20
416.1916277608579
 30
0.0
  0
VERTEX
  5
FE
  8
MAKE2D$VISIBLE$CURVES
 10
222.0783049221
 20
416.1291538008653
 30
0.0
  0
VERTEX
  5
FF
  8
MAKE2D$VISIBLE$CURVES
 10
222.1107318848017
 20
416.0677682932899
 30
0.0
  0
VERTEX
  5
100
  8
MAKE2D$VISIBLE$CURVES
 10
222.1452698035683
 20
416.0075452028873
 30
0.0
  0
VERTEX
  5
101
  8
MAKE2D$VISIBLE$CURVES
 10
222.181877062898
 20
415.9485570937907
 30
0.0
  0
VERTEX
  5
102
  8
MAKE2D$VISIBLE$CURVES
 10
222.220509553893
 20
415.8908750420773
 30
0.0
  0
VERTEX
  5
103
  8
MAKE2D$VISIBLE$CURVES
 10
222.2611207274113
 20
415.8345685501266
 30
0.0
  0
VERTEX
  5
104
  8
MAKE2D$VISIBLE$CURVES
 10
222.3036616501532
 20
415.7797054628758
 30
0.0
  0
VERTEX
  5
105
  8
MAKE2D$VISIBLE$CURVES
 10
222.3480810636184
 20
415.7263518860719
 30
0.0
  0
VERTEX
  5
106
  8
MAKE2D$VISIBLE$CURVES
 10
222.3943254458746
 20
415.6745721066193
 30
0.0
  0
VERTEX
  5
107
  8
MAKE2D$VISIBLE$CURVES
 10
222.4423390760422
 20
415.6244285151195
 30
0.0
  0
VERTEX
  5
108
  8
MAKE2D$VISIBLE$CURVES
 10
222.492064101436
 20
415.5759815306946
 30
0.0
  0
VERTEX
  5
109
  8
MAKE2D$VISIBLE$CURVES
 10
222.5434406072755
 20
415.5292895281872
 30
0.0
  0
VERTEX
  5
10A
  8
MAKE2D$VISIBLE$CURVES
 10
222.596406688871
 20
415.4844087678239
 30
0.0
  0
VERTEX
  5
10B
  8
MAKE2D$VISIBLE$CURVES
 10
222.6508985262199
 20
415.4413933274253
 30
0.0
  0
VERTEX
  5
10C
  8
MAKE2D$VISIBLE$CURVES
 10
222.7068504609024
 20
415.4002950372464
 30
0.0
  0
VERTEX
  5
10D
  8
MAKE2D$VISIBLE$CURVES
 10
222.7641950751959
 20
415.3611634175261
 30
0.0
  0
VERTEX
  5
10E
  8
MAKE2D$VISIBLE$CURVES
 10
222.8228632733054
 20
415.3240456188183
 30
0.0
  0
VERTEX
  5
10F
  8
MAKE2D$VISIBLE$CURVES
 10
222.8827843646232
 20
415.2889863651793
 30
0.0
  0
VERTEX
  5
110
  8
MAKE2D$VISIBLE$CURVES
 10
222.9438861488989
 20
415.2560279002791
 30
0.0
  0
VERTEX
  5
111
  8
MAKE2D$VISIBLE$CURVES
 10
223.0060950032458
 20
415.2252099365008
 30
0.0
  0
VERTEX
  5
112
  8
MAKE2D$VISIBLE$CURVES
 10
223.0693359708339
 20
415.1965696070906
 30
0.0
  0
VERTEX
  5
113
  8
MAKE2D$VISIBLE$CURVES
 10
223.1335328512278
 20
415.1701414214145
 30
0.0
  0
VERTEX
  5
114
  8
MAKE2D$VISIBLE$CURVES
 10
223.198608292184
 20
415.145957223378
 30
0.0
  0
VERTEX
  5
115
  8
MAKE2D$VISIBLE$CURVES
 10
223.2644838828665
 20
415.1240461530561
 30
0.0
  0
VERTEX
  5
116
  8
MAKE2D$VISIBLE$CURVES
 10
223.3310802483184
 20
415.1044346115818
 30
0.0
  0
VERTEX
  5
117
  8
MAKE2D$VISIBLE$CURVES
 10
223.3983171451055
 20
415.0871462293349
 30
0.0
  0
VERTEX
  5
118
  8
MAKE2D$VISIBLE$CURVES
 10
223.4661135580064
 20
415.07220183747
 30
0.0
  0
VERTEX
  5
119
  8
MAKE2D$VISIBLE$CURVES
 10
223.5343877976221
 20
415.0596194428149
 30
0.0
  0
VERTEX
  5
11A
  8
MAKE2D$VISIBLE$CURVES
 10
223.6030575988125
 20
415.0494142061753
 30
0.0
  0
VERTEX
  5
11B
  8
MAKE2D$VISIBLE$CURVES
 10
223.6720402198153
 20
415.0415984240665
 30
0.0
  0
VERTEX
  5
11C
  8
MAKE2D$VISIBLE$CURVES
 10
223.741252541945
 20
415.0361815138971
 30
0.0
  0
VERTEX
  5
11D
  8
MAKE2D$VISIBLE$CURVES
 10
223.8106111697435
 20
415.0331700026221
 30
0.0
  0
VERTEX
  5
11E
  8
MAKE2D$VISIBLE$CURVES
 10
223.8800325314688
 20
415.0325675188778
 30
0.0
  0
VERTEX
  5
11F
  8
MAKE2D$VISIBLE$CURVES
 10
223.9494329797845
 20
415.0343747886104
 30
0.0
  0
VERTEX
  5
120
  8
MAKE2D$VISIBLE$CURVES
 10
224.0187288925572
 20
415.0385896342005
 30
0.0
  0
VERTEX
  5
121
  8
MAKE2D$VISIBLE$CURVES
 10
224.0878367736096
 20
415.0452069770875
 30
0.0
  0
VERTEX
  5
122
  8
MAKE2D$VISIBLE$CURVES
 10
224.1566733533264
 20
415.0542188438887
 30
0.0
  0
VERTEX
  5
123
  8
MAKE2D$VISIBLE$CURVES
 10
224.2251556889915
 20
415.0656143760063
 30
0.0
  0
VERTEX
  5
124
  8
MAKE2D$VISIBLE$CURVES
 10
224.2932012647235
 20
415.0793798427119
 30
0.0
  0
VERTEX
  5
125
  8
MAKE2D$VISIBLE$CURVES
 10
224.3607280909046
 20
415.0954986576901
 30
0.0
  0
VERTEX
  5
126
  8
MAKE2D$VISIBLE$CURVES
 10
224.4276548029684
 20
415.1139513990244
 30
0.0
  0
VERTEX
  5
127
  8
MAKE2D$VISIBLE$CURVES
 10
224.4939007594385
 20
415.1347158325987
 30
0.0
  0
VERTEX
  5
128
  8
MAKE2D$VISIBLE$CURVES
 10
224.559386139099
 20
415.157766938888
 30
0.0
  0
VERTEX
  5
129
  8
MAKE2D$VISIBLE$CURVES
 10
224.6240320371663
 20
415.1830769431043
 30
0.0
  0
VERTEX
  5
12A
  8
MAKE2D$VISIBLE$CURVES
 10
224.6877605603686
 20
415.210615348664
 30
0.0
  0
VERTEX
  5
12B
  8
MAKE2D$VISIBLE$CURVES
 10
224.7504949207997
 20
415.2403489739334
 30
0.0
  0
VERTEX
  5
12C
  8
MAKE2D$VISIBLE$CURVES
 10
224.8121595284411
 20
415.2722419922098
 30
0.0
  0
VERTEX
  5
12D
  8
MAKE2D$VISIBLE$CURVES
 10
224.8726800822442
 20
415.3062559748902
 30
0.0
  0
VERTEX
  5
12E
  8
MAKE2D$VISIBLE$CURVES
 10
224.9319836596542
 20
415.3423499377749
 30
0.0
  0
VERTEX
  5
12F
  8
MAKE2D$VISIBLE$CURVES
 10
224.9899988044818
 20
415.3804803904498
 30
0.0
  0
VERTEX
  5
130
  8
MAKE2D$VISIBLE$CURVES
 10
225.0466556129914
 20
415.4206013886892
 30
0.0
  0
VERTEX
  5
131
  8
MAKE2D$VISIBLE$CURVES
 10
225.1018858181461
 20
415.4626645898153
 30
0.0
  0
VERTEX
  5
132
  8
MAKE2D$VISIBLE$CURVES
 10
225.1556228718483
 20
415.5066193109469
 30
0.0
  0
VERTEX
  5
133
  8
MAKE2D$VISIBLE$CURVES
 10
225.2078020251348
 20
415.5524125900685
 30
0.0
  0
VERTEX
  5
134
  8
MAKE2D$VISIBLE$CURVES
 10
225.2583604061884
 20
415.5999892498455
 30
0.0
  0
VERTEX
  5
135
  8
MAKE2D$VISIBLE$CURVES
 10
225.3072370961
 20
415.6492919641085
 30
0.0
  0
VERTEX
  5
136
  8
MAKE2D$VISIBLE$CURVES
 10
225.3543732022636
 20
415.7002613269269
 30
0.0
  0
VERTEX
  5
137
  8
MAKE2D$VISIBLE$CURVES
 10
225.3997119293427
 20
415.7528359241882
 30
0.0
  0
VERTEX
  5
138
  8
MAKE2D$VISIBLE$CURVES
 10
225.443198647703
 20
415.8069524075979
 30
0.0
  0
VERTEX
  5
139
  8
MAKE2D$VISIBLE$CURVES
 10
225.4847809592357
 20
415.8625455710083
 30
0.0
  0
VERTEX
  5
13A
  8
MAKE2D$VISIBLE$CURVES
 10
225.5244087604934
 20
415.9195484289875
 30
0.0
  0
VERTEX
  5
13B
  8
MAKE2D$VISIBLE$CURVES
 10
225.5620343030633
 20
415.9778922975316
 30
0.0
  0
VERTEX
  5
13C
  8
MAKE2D$VISIBLE$CURVES
 10
225.5976122510975
 20
416.037506876823
 30
0.0
  0
VERTEX
  5
13D
  8
MAKE2D$VISIBLE$CURVES
 10
225.6310997359388
 20
416.0983203359371
 30
0.0
  0
VERTEX
  5
13E
  8
MAKE2D$VISIBLE$CURVES
 10
225.6624564077748
 20
416.1602593993921
 30
0.0
  0
VERTEX
  5
13F
  8
MAKE2D$VISIBLE$CURVES
 10
225.6916444842601
 20
416.223249435441
 30
0.0
  0
VERTEX
  5
140
  8
MAKE2D$VISIBLE$CURVES
 10
225.7186287960349
 20
416.2872145459963
 30
0.0
  0
VERTEX
  5
141
  8
MAKE2D$VISIBLE$CURVES
 10
225.7433768291085
 20
416.3520776580819
 30
0.0
  0
VERTEX
  5
142
  8
MAKE2D$VISIBLE$CURVES
 10
225.7658587640245
 20
416.4177606166998
 30
0.0
  0
VERTEX
  5
143
  8
MAKE2D$VISIBLE$CURVES
 10
225.7860475118032
 20
416.4841842790008
 30
0.0
  0
VERTEX
  5
144
  8
MAKE2D$VISIBLE$CURVES
 10
225.8039187465775
 20
416.5512686096453
 30
0.0
  0
VERTEX
  5
145
  8
MAKE2D$VISIBLE$CURVES
 10
225.8194509349005
 20
416.61893277724
 30
0.0
  0
VERTEX
  5
146
  8
MAKE2D$VISIBLE$CURVES
 10
225.8326253616952
 20
416.687095251733
 30
0.0
  0
VERTEX
  5
147
  8
MAKE2D$VISIBLE$CURVES
 10
225.8434261528028
 20
416.7556739026515
 30
0.0
  0
VERTEX
  5
148
  8
MAKE2D$VISIBLE$CURVES
 10
225.8518402941118
 20
416.8245860980628
 30
0.0
  0
VERTEX
  5
149
  8
MAKE2D$VISIBLE$CURVES
 10
225.8578576472383
 20
416.8937488041386
 30
0.0
  0
VERTEX
  5
14A
  8
MAKE2D$VISIBLE$CURVES
 10
225.8614709617387
 20
416.9630786852051
 30
0.0
  0
SEQEND
  5
A81
  8
MAKE2D$VISIBLE$CURVES
  0
POLYLINE
  5
71
  8
MAKE2D$VISIBLE$CURVES
 66
     1
 10
0.0
 20
0.0
 30
0.0
 70
     1
  0
VERTEX
  5
14B
  8
MAKE2D$VISIBLE$CURVES
 10
25.72736223641192
 20
417.0324922041554
 30
0.0
  0
VERTEX
  5
14C
  8
MAKE2D$VISIBLE$CURVES
 10
25.72615731429966
 20
417.1019057231057
 30
0.0
  0
VERTEX
  5
14D
  8
MAKE2D$VISIBLE$CURVES
 10
25.72254399979926
 20
417.1712356041722
 30
0.0
  0
VERTEX
  5
14E
  8
MAKE2D$VISIBLE$CURVES
 10
25.71652664667278
 20
417.2403983102481
 30
0.0
  0
VERTEX
  5
14F
  8
MAKE2D$VISIBLE$CURVES
 10
25.70811250536377
 20
417.3093105056593
 30
0.0
  0
VERTEX
  5
150
  8
MAKE2D$VISIBLE$CURVES
 10
25.69731171425616
 20
417.3778891565779
 30
0.0
  0
VERTEX
  5
151
  8
MAKE2D$VISIBLE$CURVES
 10
25.68413728746151
 20
417.4460516310708
 30
0.0
  0
VERTEX
  5
152
  8
MAKE2D$VISIBLE$CURVES
 10
25.66860509913846
 20
417.5137157986655
 30
0.0
  0
VERTEX
  5
153
  8
MAKE2D$VISIBLE$CURVES
 10
25.65073386436421
 20
417.58080012931
 30
0.0
  0
VERTEX
  5
154
  8
MAKE2D$VISIBLE$CURVES
 10
25.63054511658544
 20
417.647223791611
 30
0.0
  0
VERTEX
  5
155
  8
MAKE2D$VISIBLE$CURVES
 10
25.60806318166948
 20
417.7129067502289
 30
0.0
  0
VERTEX
  5
156
  8
MAKE2D$VISIBLE$CURVES
 10
25.5833151485968
 20
417.7777698623145
 30
0.0
  0
VERTEX
  5
157
  8
MAKE2D$VISIBLE$CURVES
 10
25.55633083682102
 20
417.8417349728698
 30
0.0
  0
VERTEX
  5
158
  8
MAKE2D$VISIBLE$CURVES
 10
25.52714276033572
 20
417.9047250089187
 30
0.0
  0
VERTEX
  5
159
  8
MAKE2D$VISIBLE$CURVES
 10
25.49578608849794
 20
417.9666640723737
 30
0.0
  0
VERTEX
  5
15A
  8
MAKE2D$VISIBLE$CURVES
 10
25.46229860365844
 20
418.0274775314878
 30
0.0
  0
VERTEX
  5
15B
  8
MAKE2D$VISIBLE$CURVES
 10
25.42672065562425
 20
418.0870921107792
 30
0.0
  0
VERTEX
  5
15C
  8
MAKE2D$VISIBLE$CURVES
 10
25.38909511305434
 20
418.1454359793233
 30
0.0
  0
VERTEX
  5
15D
  8
MAKE2D$VISIBLE$CURVES
 10
25.34946731179667
 20
418.2024388373025
 30
0.0
  0
VERTEX
  5
15E
  8
MAKE2D$VISIBLE$CURVES
 10
25.30788500026398
 20
418.2580320007129
 30
0.0
  0
VERTEX
  5
15F
  8
MAKE2D$VISIBLE$CURVES
 10
25.26439828190365
 20
418.3121484841226
 30
0.0
  0
VERTEX
  5
160
  8
MAKE2D$VISIBLE$CURVES
 10
25.21905955482458
 20
418.3647230813842
 30
0.0
  0
VERTEX
  5
161
  8
MAKE2D$VISIBLE$CURVES
 10
25.17192344866095
 20
418.4156924442025
 30
0.0
  0
VERTEX
  5
162
  8
MAKE2D$VISIBLE$CURVES
 10
25.12304675874935
 20
418.4649951584656
 30
0.0
  0
VERTEX
  5
163
  8
MAKE2D$VISIBLE$CURVES
 10
25.07248837769572
 20
418.5125718182425
 30
0.0
  0
VERTEX
  5
164
  8
MAKE2D$VISIBLE$CURVES
 10
25.02030922440923
 20
418.5583650973642
 30
0.0
  0
VERTEX
  5
165
  8
MAKE2D$VISIBLE$CURVES
 10
24.96657217070702
 20
418.6023198184957
 30
0.0
  0
VERTEX
  5
166
  8
MAKE2D$VISIBLE$CURVES
 10
24.91134196555237
 20
418.6443830196218
 30
0.0
  0
VERTEX
  5
167
  8
MAKE2D$VISIBLE$CURVES
 10
24.85468515704093
 20
418.6845040178612
 30
0.0
  0
VERTEX
  5
168
  8
MAKE2D$VISIBLE$CURVES
 10
24.7966700122152
 20
418.7226344705361
 30
0.0
  0
VERTEX
  5
169
  8
MAKE2D$VISIBLE$CURVES
 10
24.73736643480521
 20
418.7587284334208
 30
0.0
  0
VERTEX
  5
16A
  8
MAKE2D$VISIBLE$CURVES
 10
24.67684588100207
 20
418.7927424161012
 30
0.0
  0
VERTEX
  5
16B
  8
MAKE2D$VISIBLE$CURVES
 10
24.61518127336063
 20
418.8246354343776
 30
0.0
  0
VERTEX
  5
16C
  8
MAKE2D$VISIBLE$CURVES
 10
24.55244691292961
 20
418.854369059647
 30
0.0
  0
VERTEX
  5
16D
  8
MAKE2D$VISIBLE$CURVES
 10
24.48871838972724
 20
418.8819074652068
 30
0.0
  0
VERTEX
  5
16E
  8
MAKE2D$VISIBLE$CURVES
 10
24.42407249165996
 20
418.9072174694231
 30
0.0
  0
VERTEX
  5
16F
  8
MAKE2D$VISIBLE$CURVES
 10
24.3585871119995
 20
418.9302685757123
 30
0.0
  0
VERTEX
  5
170
  8
MAKE2D$VISIBLE$CURVES
 10
24.29234115552941
 20
418.9510330092866
 30
0.0
  0
VERTEX
  5
171
  8
MAKE2D$VISIBLE$CURVES
 10
24.22541444346558
 20
418.9694857506211
 30
0.0
  0
VERTEX
  5
172
  8
MAKE2D$VISIBLE$CURVES
 10
24.15788761728442
 20
418.9856045655993
 30
0.0
  0
VERTEX
  5
173
  8
MAKE2D$VISIBLE$CURVES
 10
24.08984204155246
 20
418.999370032305
 30
0.0
  0
VERTEX
  5
174
  8
MAKE2D$VISIBLE$CURVES
 10
24.02135970588739
 20
419.0107655644226
 30
0.0
  0
VERTEX
  5
175
  8
MAKE2D$VISIBLE$CURVES
 10
23.95252312617055
 20
419.0197774312238
 30
0.0
  0
VERTEX
  5
176
  8
MAKE2D$VISIBLE$CURVES
 10
23.88341524511821
 20
419.0263947741108
 30
0.0
  0
VERTEX
  5
177
  8
MAKE2D$VISIBLE$CURVES
 10
23.81411933234546
 20
419.0306096197009
 30
0.0
  0
VERTEX
  5
178
  8
MAKE2D$VISIBLE$CURVES
 10
23.74471888402974
 20
419.0324168894335
 30
0.0
  0
VERTEX
  5
179
  8
MAKE2D$VISIBLE$CURVES
 10
23.67529752230445
 20
419.0318144056892
 30
0.0
  0
VERTEX
  5
17A
  8
MAKE2D$VISIBLE$CURVES
 10
23.60593889450598
 20
419.0288028944141
 30
0.0
  0
VERTEX
  5
17B
  8
MAKE2D$VISIBLE$CURVES
 10
23.53672657237627
 20
419.0233859842447
 30
0.0
  0
VERTEX
  5
17C
  8
MAKE2D$VISIBLE$CURVES
 10
23.46774395137351
 20
419.015570202136
 30
0.0
  0
VERTEX
  5
17D
  8
MAKE2D$VISIBLE$CURVES
 10
23.39907415018303
 20
419.0053649654963
 30
0.0
  0
VERTEX
  5
17E
  8
MAKE2D$VISIBLE$CURVES
 10
23.33079991056735
 20
418.9927825708413
 30
0.0
  0
VERTEX
  5
17F
  8
MAKE2D$VISIBLE$CURVES
 10
23.26300349766649
 20
418.9778381789764
 30
0.0
  0
VERTEX
  5
180
  8
MAKE2D$VISIBLE$CURVES
 10
23.19576660087938
 20
418.9605497967297
 30
0.0
  0
VERTEX
  5
181
  8
MAKE2D$VISIBLE$CURVES
 10
23.12917023542747
 20
418.9409382552554
 30
0.0
  0
VERTEX
  5
182
  8
MAKE2D$VISIBLE$CURVES
 10
23.06329464474499
 20
418.9190271849334
 30
0.0
  0
VERTEX
  5
183
  8
MAKE2D$VISIBLE$CURVES
 10
22.99821920378878
 20
418.894842986897
 30
0.0
  0
VERTEX
  5
184
  8
MAKE2D$VISIBLE$CURVES
 10
22.93402232339491
 20
418.8684148012209
 30
0.0
  0
VERTEX
  5
185
  8
MAKE2D$VISIBLE$CURVES
 10
22.87078135580492
 20
418.8397744718107
 30
0.0
  0
VERTEX
  5
186
  8
MAKE2D$VISIBLE$CURVES
 10
22.80857250146079
 20
418.8089565080324
 30
0.0
  0
VERTEX
  5
187
  8
MAKE2D$VISIBLE$CURVES
 10
22.74747071718417
 20
418.7759980431322
 30
0.0
  0
VERTEX
  5
188
  8
MAKE2D$VISIBLE$CURVES
 10
22.68754962586632
 20
418.7409387894932
 30
0.0
  0
VERTEX
  5
189
  8
MAKE2D$VISIBLE$CURVES
 10
22.62888142775779
 20
418.7038209907853
 30
0.0
  0
VERTEX
  5
18A
  8
MAKE2D$VISIBLE$CURVES
 10
22.57153681346341
 20
418.6646893710651
 30
0.0
  0
VERTEX
  5
18B
  8
MAKE2D$VISIBLE$CURVES
 10
22.51558487878179
 20
418.6235910808862
 30
0.0
  0
VERTEX
  5
18C
  8
MAKE2D$VISIBLE$CURVES
 10
22.46109304143198
 20
418.5805756404876
 30
0.0
  0
VERTEX
  5
18D
  8
MAKE2D$VISIBLE$CURVES
 10
22.40812695983647
 20
418.5356948801243
 30
0.0
  0
VERTEX
  5
18E
  8
MAKE2D$VISIBLE$CURVES
 10
22.35675045399699
 20
418.4890028776169
 30
0.0
  0
VERTEX
  5
18F
  8
MAKE2D$VISIBLE$CURVES
 10
22.30702542860314
 20
418.440555893192
 30
0.0
  0
VERTEX
  5
190
  8
MAKE2D$VISIBLE$CURVES
 10
22.25901179843555
 20
418.3904123016922
 30
0.0
  0
VERTEX
  5
191
  8
MAKE2D$VISIBLE$CURVES
 10
22.21276741617936
 20
418.3386325222398
 30
0.0
  0
VERTEX
  5
192
  8
MAKE2D$VISIBLE$CURVES
 10
22.16834800271414
 20
418.285278945436
 30
0.0
  0
VERTEX
  5
193
  8
MAKE2D$VISIBLE$CURVES
 10
22.12580707997228
 20
418.2304158581852
 30
0.0
  0
VERTEX
  5
194
  8
MAKE2D$VISIBLE$CURVES
 10
22.08519590645398
 20
418.1741093662344
 30
0.0
  0
VERTEX
  5
195
  8
MAKE2D$VISIBLE$CURVES
 10
22.04656341545893
 20
418.116427314521
 30
0.0
  0
VERTEX
  5
196
  8
MAKE2D$VISIBLE$CURVES
 10
22.00995615612925
 20
418.0574392054244
 30
0.0
  0
VERTEX
  5
197
  8
MAKE2D$VISIBLE$CURVES
 10
21.9754182373627
 20
417.9972161150218
 30
0.0
  0
VERTEX
  5
198
  8
MAKE2D$VISIBLE$CURVES
 10
21.94299127466098
 20
417.9358306074465
 30
0.0
  0
VERTEX
  5
199
  8
MAKE2D$VISIBLE$CURVES
 10
21.91271433998742
 20
417.8733566474538
 30
0.0
  0
VERTEX
  5
19A
  8
MAKE2D$VISIBLE$CURVES
 10
21.88462391469153
 20
417.8098695112997
 30
0.0
  0
VERTEX
  5
19B
  8
MAKE2D$VISIBLE$CURVES
 10
21.8587538455468
 20
417.7454456960385
 30
0.0
  0
VERTEX
  5
19C
  8
MAKE2D$VISIBLE$CURVES
 10
21.83513530397164
 20
417.6801628273496
 30
0.0
  0
VERTEX
  5
19D
  8
MAKE2D$VISIBLE$CURVES
 10
21.81379674847
 20
417.6140995660052
 30
0.0
  0
VERTEX
  5
19E
  8
MAKE2D$VISIBLE$CURVES
 10
21.79476389033795
 20
417.5473355130896
 30
0.0
  0
VERTEX
  5
19F
  8
MAKE2D$VISIBLE$CURVES
 10
21.77805966268903
 20
417.4799511140865
 30
0.0
  0
VERTEX
  5
1A0
  8
MAKE2D$VISIBLE$CURVES
 10
21.76370419281471
 20
417.4120275619485
 30
0.0
  0
VERTEX
  5
1A1
  8
MAKE2D$VISIBLE$CURVES
 10
21.75171477793816
 20
417.3436466992653
 30
0.0
  0
VERTEX
  5
1A2
  8
MAKE2D$VISIBLE$CURVES
 10
21.74210586437135
 20
417.2748909196504
 30
0.0
  0
VERTEX
  5
1A3
  8
MAKE2D$VISIBLE$CURVES
 10
21.73488903010644
 20
417.2058430684634
 30
0.0
  0
VERTEX
  5
1A4
  8
MAKE2D$VISIBLE$CURVES
 10
21.73007297086593
 20
417.1365863429865
 30
0.0
  0
VERTEX
  5
1A5
  8
MAKE2D$VISIBLE$CURVES
 10
21.72766348962801
 20
417.0672041921801
 30
0.0
  0
VERTEX
  5
1A6
  8
MAKE2D$VISIBLE$CURVES
 10
21.72766348962801
 20
416.9977802161316
 30
0.0
  0
VERTEX
  5
1A7
  8
MAKE2D$VISIBLE$CURVES
 10
21.73007297086593
 20
416.9283980653252
 30
0.0
  0
VERTEX
  5
1A8
  8
MAKE2D$VISIBLE$CURVES
 10
21.73488903010644
 20
416.8591413398483
 30
0.0
  0
VERTEX
  5
1A9
  8
MAKE2D$VISIBLE$CURVES
 10
21.74210586437135
 20
416.7900934886613
 30
0.0
  0
VERTEX
  5
1AA
  8
MAKE2D$VISIBLE$CURVES
 10
21.75171477793816
 20
416.7213377090464
 30
0.0
  0
VERTEX
  5
1AB
  8
MAKE2D$VISIBLE$CURVES
 10
21.76370419281471
 20
416.6529568463632
 30
0.0
  0
VERTEX
  5
1AC
  8
MAKE2D$VISIBLE$CURVES
 10
21.77805966268903
 20
416.5850332942252
 30
0.0
  0
VERTEX
  5
1AD
  8
MAKE2D$VISIBLE$CURVES
 10
21.79476389033795
 20
416.5176488952221
 30
0.0
  0
VERTEX
  5
1AE
  8
MAKE2D$VISIBLE$CURVES
 10
21.81379674847
 20
416.4508848423065
 30
0.0
  0
VERTEX
  5
1AF
  8
MAKE2D$VISIBLE$CURVES
 10
21.83513530397164
 20
416.3848215809621
 30
0.0
  0
VERTEX
  5
1B0
  8
MAKE2D$VISIBLE$CURVES
 10
21.8587538455468
 20
416.3195387122732
 30
0.0
  0
VERTEX
  5
1B1
  8
MAKE2D$VISIBLE$CURVES
 10
21.88462391469153
 20
416.255114897012
 30
0.0
  0
VERTEX
  5
1B2
  8
MAKE2D$VISIBLE$CURVES
 10
21.91271433998742
 20
416.1916277608579
 30
0.0
  0
VERTEX
  5
1B3
  8
MAKE2D$VISIBLE$CURVES
 10
21.94299127466098
 20
416.1291538008653
 30
0.0
  0
VERTEX
  5
1B4
  8
MAKE2D$VISIBLE$CURVES
 10
21.9754182373627
 20
416.0677682932899
 30
0.0
  0
VERTEX
  5
1B5
  8
MAKE2D$VISIBLE$CURVES
 10
22.00995615612925
 20
416.0075452028873
 30
0.0
  0
VERTEX
  5
1B6
  8
MAKE2D$VISIBLE$CURVES
 10
22.04656341545893
 20
415.9485570937907
 30
0.0
  0
VERTEX
  5
1B7
  8
MAKE2D$VISIBLE$CURVES
 10
22.08519590645398
 20
415.8908750420773
 30
0.0
  0
VERTEX
  5
1B8
  8
MAKE2D$VISIBLE$CURVES
 10
22.12580707997228
 20
415.8345685501266
 30
0.0
  0
VERTEX
  5
1B9
  8
MAKE2D$VISIBLE$CURVES
 10
22.16834800271414
 20
415.7797054628758
 30
0.0
  0
VERTEX
  5
1BA
  8
MAKE2D$VISIBLE$CURVES
 10
22.21276741617936
 20
415.7263518860719
 30
0.0
  0
VERTEX
  5
1BB
  8
MAKE2D$VISIBLE$CURVES
 10
22.25901179843555
 20
415.6745721066193
 30
0.0
  0
VERTEX
  5
1BC
  8
MAKE2D$VISIBLE$CURVES
 10
22.30702542860314
 20
415.6244285151195
 30
0.0
  0
VERTEX
  5
1BD
  8
MAKE2D$VISIBLE$CURVES
 10
22.35675045399699
 20
415.5759815306946
 30
0.0
  0
VERTEX
  5
1BE
  8
MAKE2D$VISIBLE$CURVES
 10
22.40812695983647
 20
415.5292895281872
 30
0.0
  0
VERTEX
  5
1BF
  8
MAKE2D$VISIBLE$CURVES
 10
22.46109304143198
 20
415.4844087678239
 30
0.0
  0
VERTEX
  5
1C0
  8
MAKE2D$VISIBLE$CURVES
 10
22.51558487878179
 20
415.4413933274253
 30
0.0
  0
VERTEX
  5
1C1
  8
MAKE2D$VISIBLE$CURVES
 10
22.57153681346341
 20
415.4002950372464
 30
0.0
  0
VERTEX
  5
1C2
  8
MAKE2D$VISIBLE$CURVES
 10
22.62888142775779
 20
415.3611634175261
 30
0.0
  0
VERTEX
  5
1C3
  8
MAKE2D$VISIBLE$CURVES
 10
22.68754962586632
 20
415.3240456188183
 30
0.0
  0
VERTEX
  5
1C4
  8
MAKE2D$VISIBLE$CURVES
 10
22.74747071718417
 20
415.2889863651793
 30
0.0
  0
VERTEX
  5
1C5
  8
MAKE2D$VISIBLE$CURVES
 10
22.80857250146079
 20
415.2560279002791
 30
0.0
  0
VERTEX
  5
1C6
  8
MAKE2D$VISIBLE$CURVES
 10
22.87078135580492
 20
415.2252099365008
 30
0.0
  0
VERTEX
  5
1C7
  8
MAKE2D$VISIBLE$CURVES
 10
22.93402232339491
 20
415.1965696070906
 30
0.0
  0
VERTEX
  5
1C8
  8
MAKE2D$VISIBLE$CURVES
 10
22.99821920378878
 20
415.1701414214145
 30
0.0
  0
VERTEX
  5
1C9
  8
MAKE2D$VISIBLE$CURVES
 10
23.06329464474499
 20
415.145957223378
 30
0.0
  0
VERTEX
  5
1CA
  8
MAKE2D$VISIBLE$CURVES
 10
23.12917023542747
 20
415.1240461530561
 30
0.0
  0
VERTEX
  5
1CB
  8
MAKE2D$VISIBLE$CURVES
 10
23.19576660087938
 20
415.1044346115818
 30
0.0
  0
VERTEX
  5
1CC
  8
MAKE2D$VISIBLE$CURVES
 10
23.26300349766649
 20
415.0871462293349
 30
0.0
  0
VERTEX
  5
1CD
  8
MAKE2D$VISIBLE$CURVES
 10
23.33079991056735
 20
415.07220183747
 30
0.0
  0
VERTEX
  5
1CE
  8
MAKE2D$VISIBLE$CURVES
 10
23.39907415018303
 20
415.0596194428149
 30
0.0
  0
VERTEX
  5
1CF
  8
MAKE2D$VISIBLE$CURVES
 10
23.46774395137351
 20
415.0494142061753
 30
0.0
  0
VERTEX
  5
1D0
  8
MAKE2D$VISIBLE$CURVES
 10
23.53672657237627
 20
415.0415984240665
 30
0.0
  0
VERTEX
  5
1D1
  8
MAKE2D$VISIBLE$CURVES
 10
23.60593889450598
 20
415.0361815138971
 30
0.0
  0
VERTEX
  5
1D2
  8
MAKE2D$VISIBLE$CURVES
 10
23.67529752230445
 20
415.0331700026221
 30
0.0
  0
VERTEX
  5
1D3
  8
MAKE2D$VISIBLE$CURVES
 10
23.74471888402974
 20
415.0325675188778
 30
0.0
  0
VERTEX
  5
1D4
  8
MAKE2D$VISIBLE$CURVES
 10
23.81411933234546
 20
415.0343747886104
 30
0.0
  0
VERTEX
  5
1D5
  8
MAKE2D$VISIBLE$CURVES
 10
23.88341524511821
 20
415.0385896342005
 30
0.0
  0
VERTEX
  5
1D6
  8
MAKE2D$VISIBLE$CURVES
 10
23.95252312617055
 20
415.0452069770875
 30
0.0
  0
VERTEX
  5
1D7
  8
MAKE2D$VISIBLE$CURVES
 10
24.02135970588739
 20
415.0542188438887
 30
0.0
  0
VERTEX
  5
1D8
  8
MAKE2D$VISIBLE$CURVES
 10
24.08984204155246
 20
415.0656143760063
 30
0.0
  0
VERTEX
  5
1D9
  8
MAKE2D$VISIBLE$CURVES
 10
24.15788761728442
 20
415.0793798427119
 30
0.0
  0
VERTEX
  5
1DA
  8
MAKE2D$VISIBLE$CURVES
 10
24.22541444346558
 20
415.0954986576901
 30
0.0
  0
VERTEX
  5
1DB
  8
MAKE2D$VISIBLE$CURVES
 10
24.29234115552941
 20
415.1139513990244
 30
0.0
  0
VERTEX
  5
1DC
  8
MAKE2D$VISIBLE$CURVES
 10
24.3585871119995
 20
415.1347158325987
 30
0.0
  0
VERTEX
  5
1DD
  8
MAKE2D$VISIBLE$CURVES
 10
24.42407249165996
 20
415.157766938888
 30
0.0
  0
VERTEX
  5
1DE
  8
MAKE2D$VISIBLE$CURVES
 10
24.48871838972724
 20
415.1830769431043
 30
0.0
  0
VERTEX
  5
1DF
  8
MAKE2D$VISIBLE$CURVES
 10
24.55244691292961
 20
415.210615348664
 30
0.0
  0
VERTEX
  5
1E0
  8
MAKE2D$VISIBLE$CURVES
 10
24.61518127336063
 20
415.2403489739334
 30
0.0
  0
VERTEX
  5
1E1
  8
MAKE2D$VISIBLE$CURVES
 10
24.67684588100207
 20
415.2722419922098
 30
0.0
  0
VERTEX
  5
1E2
  8
MAKE2D$VISIBLE$CURVES
 10
24.73736643480521
 20
415.3062559748902
 30
0.0
  0
VERTEX
  5
1E3
  8
MAKE2D$VISIBLE$CURVES
 10
24.7966700122152
 20
415.3423499377749
 30
0.0
  0
VERTEX
  5
1E4
  8
MAKE2D$VISIBLE$CURVES
 10
24.85468515704093
 20
415.3804803904498
 30
0.0
  0
VERTEX
  5
1E5
  8
MAKE2D$VISIBLE$CURVES
 10
24.91134196555237
 20
415.4206013886892
 30
0.0
  0
VERTEX
  5
1E6
  8
MAKE2D$VISIBLE$CURVES
 10
24.96657217070702
 20
415.4626645898153
 30
0.0
  0
VERTEX
  5
1E7
  8
MAKE2D$VISIBLE$CURVES
 10
25.02030922440923
 20
415.5066193109469
 30
0.0
  0
VERTEX
  5
1E8
  8
MAKE2D$VISIBLE$CURVES
 10
25.07248837769572
 20
415.5524125900685
 30
0.0
  0
VERTEX
  5
1E9
  8
MAKE2D$VISIBLE$CURVES
 10
25.12304675874935
 20
415.5999892498455
 30
0.0
  0
VERTEX
  5
1EA
  8
MAKE2D$VISIBLE$CURVES
 10
25.17192344866095
 20
415.6492919641085
 30
0.0
  0
VERTEX
  5
1EB
  8
MAKE2D$VISIBLE$CURVES
 10
25.21905955482458
 20
415.7002613269269
 30
0.0
  0
VERTEX
  5
1EC
  8
MAKE2D$VISIBLE$CURVES
 10
25.26439828190365
 20
415.7528359241882
 30
0.0
  0
VERTEX
  5
1ED
  8
MAKE2D$VISIBLE$CURVES
 10
25.30788500026398
 20
415.8069524075979
 30
0.0
  0
VERTEX
  5
1EE
  8
MAKE2D$VISIBLE$CURVES
 10
25.34946731179667
 20
415.8625455710083
 30
0.0
  0
VERTEX
  5
1EF
  8
MAKE2D$VISIBLE$CURVES
 10
25.38909511305434
 20
415.9195484289875
 30
0.0
  0
VERTEX
  5
1F0
  8
MAKE2D$VISIBLE$CURVES
 10
25.42672065562425
 20
415.9778922975316
 30
0.0
  0
VERTEX
  5
1F1
  8
MAKE2D$VISIBLE$CURVES
 10
25.46229860365844
 20
416.037506876823
 30
0.0
  0
VERTEX
  5
1F2
  8
MAKE2D$VISIBLE$CURVES
 10
25.49578608849794
 20
416.0983203359371
 30
0.0
  0
VERTEX
  5
1F3
  8
MAKE2D$VISIBLE$CURVES
 10
25.52714276033572
 20
416.1602593993921
 30
0.0
  0
VERTEX
  5
1F4
  8
MAKE2D$VISIBLE$CURVES
 10
25.55633083682102
 20
416.223249435441
 30
0.0
  0
VERTEX
  5
1F5
  8
MAKE2D$VISIBLE$CURVES
 10
25.5833151485968
 20
416.2872145459963
 30
0.0
  0
VERTEX
  5
1F6
  8
MAKE2D$VISIBLE$CURVES
 10
25.60806318166948
 20
416.3520776580819
 30
0.0
  0
VERTEX
  5
1F7
  8
MAKE2D$VISIBLE$CURVES
 10
25.63054511658544
 20
416.4177606166998
 30
0.0
  0
VERTEX
  5
1F8
  8
MAKE2D$VISIBLE$CURVES
 10
25.65073386436421
 20
416.4841842790008
 30
0.0
  0
VERTEX
  5
1F9
  8
MAKE2D$VISIBLE$CURVES
 10
25.66860509913846
 20
416.5512686096453
 30
0.0
  0
VERTEX
  5
1FA
  8
MAKE2D$VISIBLE$CURVES
 10
25.68413728746151
 20
416.61893277724
 30
0.0
  0
VERTEX
  5
1FB
  8
MAKE2D$VISIBLE$CURVES
 10
25.69731171425616
 20
416.687095251733
 30
0.0
  0
VERTEX
  5
1FC
  8
MAKE2D$VISIBLE$CURVES
 10
25.70811250536377
 20
416.7556739026515
 30
0.0
  0
VERTEX
  5
1FD
  8
MAKE2D$VISIBLE$CURVES
 10
25.71652664667278
 20
416.8245860980628
 30
0.0
  0
VERTEX
  5
1FE
  8
MAKE2D$VISIBLE$CURVES
 10
25.72254399979926
 20
416.8937488041386
 30
0.0
  0
VERTEX
  5
1FF
  8
MAKE2D$VISIBLE$CURVES
 10
25.72615731429966
 20
416.9630786852051
 30
0.0
  0
SEQEND
  5
A82
  8
MAKE2D$VISIBLE$CURVES
  0
POLYLINE
  5
72
  8
MAKE2D$VISIBLE$CURVES
 66
     1
 10
0.0
 20
0.0
 30
0.0
 70
     1
  0
VERTEX
  5
200
  8
MAKE2D$VISIBLE$CURVES
 10
25.72736223641192
 20
116.8690242794425
 30
0.0
  0
VERTEX
  5
201
  8
MAKE2D$VISIBLE$CURVES
 10
25.72615731429966
 20
116.9384377983929
 30
0.0
  0
VERTEX
  5
202
  8
MAKE2D$VISIBLE$CURVES
 10
25.72254399979926
 20
117.0077676794594
 30
0.0
  0
VERTEX
  5
203
  8
MAKE2D$VISIBLE$CURVES
 10
25.71652664667278
 20
117.0769303855351
 30
0.0
  0
VERTEX
  5
204
  8
MAKE2D$VISIBLE$CURVES
 10
25.70811250536377
 20
117.1458425809464
 30
0.0
  0
VERTEX
  5
205
  8
MAKE2D$VISIBLE$CURVES
 10
25.69731171425616
 20
117.2144212318649
 30
0.0
  0
VERTEX
  5
206
  8
MAKE2D$VISIBLE$CURVES
 10
25.68413728746151
 20
117.282583706358
 30
0.0
  0
VERTEX
  5
207
  8
MAKE2D$VISIBLE$CURVES
 10
25.66860509913846
 20
117.3502478739526
 30
0.0
  0
VERTEX
  5
208
  8
MAKE2D$VISIBLE$CURVES
 10
25.65073386436421
 20
117.4173322045971
 30
0.0
  0
VERTEX
  5
209
  8
MAKE2D$VISIBLE$CURVES
 10
25.63054511658544
 20
117.4837558668981
 30
0.0
  0
VERTEX
  5
20A
  8
MAKE2D$VISIBLE$CURVES
 10
25.60806318166948
 20
117.5494388255159
 30
0.0
  0
VERTEX
  5
20B
  8
MAKE2D$VISIBLE$CURVES
 10
25.5833151485968
 20
117.6143019376017
 30
0.0
  0
VERTEX
  5
20C
  8
MAKE2D$VISIBLE$CURVES
 10
25.55633083682102
 20
117.678267048157
 30
0.0
  0
VERTEX
  5
20D
  8
MAKE2D$VISIBLE$CURVES
 10
25.52714276033572
 20
117.7412570842058
 30
0.0
  0
VERTEX
  5
20E
  8
MAKE2D$VISIBLE$CURVES
 10
25.49578608849794
 20
117.8031961476609
 30
0.0
  0
VERTEX
  5
20F
  8
MAKE2D$VISIBLE$CURVES
 10
25.46229860365844
 20
117.8640096067749
 30
0.0
  0
VERTEX
  5
210
  8
MAKE2D$VISIBLE$CURVES
 10
25.42672065562425
 20
117.9236241860664
 30
0.0
  0
VERTEX
  5
211
  8
MAKE2D$VISIBLE$CURVES
 10
25.38909511305434
 20
117.9819680546105
 30
0.0
  0
VERTEX
  5
212
  8
MAKE2D$VISIBLE$CURVES
 10
25.34946731179667
 20
118.0389709125897
 30
0.0
  0
VERTEX
  5
213
  8
MAKE2D$VISIBLE$CURVES
 10
25.30788500026398
 20
118.0945640760002
 30
0.0
  0
VERTEX
  5
214
  8
MAKE2D$VISIBLE$CURVES
 10
25.26439828190365
 20
118.1486805594099
 30
0.0
  0
VERTEX
  5
215
  8
MAKE2D$VISIBLE$CURVES
 10
25.21905955482458
 20
118.2012551566713
 30
0.0
  0
VERTEX
  5
216
  8
MAKE2D$VISIBLE$CURVES
 10
25.17192344866095
 20
118.2522245194897
 30
0.0
  0
VERTEX
  5
217
  8
MAKE2D$VISIBLE$CURVES
 10
25.12304675874935
 20
118.3015272337527
 30
0.0
  0
VERTEX
  5
218
  8
MAKE2D$VISIBLE$CURVES
 10
25.07248837769572
 20
118.3491038935298
 30
0.0
  0
VERTEX
  5
219
  8
MAKE2D$VISIBLE$CURVES
 10
25.02030922440923
 20
118.3948971726514
 30
0.0
  0
VERTEX
  5
21A
  8
MAKE2D$VISIBLE$CURVES
 10
24.96657217070702
 20
118.4388518937829
 30
0.0
  0
VERTEX
  5
21B
  8
MAKE2D$VISIBLE$CURVES
 10
24.91134196555237
 20
118.480915094909
 30
0.0
  0
VERTEX
  5
21C
  8
MAKE2D$VISIBLE$CURVES
 10
24.85468515704093
 20
118.5210360931485
 30
0.0
  0
VERTEX
  5
21D
  8
MAKE2D$VISIBLE$CURVES
 10
24.7966700122152
 20
118.5591665458232
 30
0.0
  0
VERTEX
  5
21E
  8
MAKE2D$VISIBLE$CURVES
 10
24.73736643480521
 20
118.595260508708
 30
0.0
  0
VERTEX
  5
21F
  8
MAKE2D$VISIBLE$CURVES
 10
24.67684588100207
 20
118.6292744913885
 30
0.0
  0
VERTEX
  5
220
  8
MAKE2D$VISIBLE$CURVES
 10
24.61518127336063
 20
118.6611675096649
 30
0.0
  0
VERTEX
  5
221
  8
MAKE2D$VISIBLE$CURVES
 10
24.55244691292961
 20
118.6909011349343
 30
0.0
  0
VERTEX
  5
222
  8
MAKE2D$VISIBLE$CURVES
 10
24.48871838972724
 20
118.718439540494
 30
0.0
  0
VERTEX
  5
223
  8
MAKE2D$VISIBLE$CURVES
 10
24.42407249165996
 20
118.7437495447104
 30
0.0
  0
VERTEX
  5
224
  8
MAKE2D$VISIBLE$CURVES
 10
24.3585871119995
 20
118.7668006509996
 30
0.0
  0
VERTEX
  5
225
  8
MAKE2D$VISIBLE$CURVES
 10
24.29234115552941
 20
118.787565084574
 30
0.0
  0
VERTEX
  5
226
  8
MAKE2D$VISIBLE$CURVES
 10
24.22541444346558
 20
118.8060178259084
 30
0.0
  0
VERTEX
  5
227
  8
MAKE2D$VISIBLE$CURVES
 10
24.15788761728442
 20
118.8221366408866
 30
0.0
  0
VERTEX
  5
228
  8
MAKE2D$VISIBLE$CURVES
 10
24.08984204155246
 20
118.8359021075922
 30
0.0
  0
VERTEX
  5
229
  8
MAKE2D$VISIBLE$CURVES
 10
24.02135970588739
 20
118.8472976397099
 30
0.0
  0
VERTEX
  5
22A
  8
MAKE2D$VISIBLE$CURVES
 10
23.95252312617055
 20
118.8563095065111
 30
0.0
  0
VERTEX
  5
22B
  8
MAKE2D$VISIBLE$CURVES
 10
23.88341524511821
 20
118.8629268493981
 30
0.0
  0
VERTEX
  5
22C
  8
MAKE2D$VISIBLE$CURVES
 10
23.81411933234546
 20
118.8671416949882
 30
0.0
  0
VERTEX
  5
22D
  8
MAKE2D$VISIBLE$CURVES
 10
23.74471888402974
 20
118.8689489647208
 30
0.0
  0
VERTEX
  5
22E
  8
MAKE2D$VISIBLE$CURVES
 10
23.67529752230445
 20
118.8683464809766
 30
0.0
  0
VERTEX
  5
22F
  8
MAKE2D$VISIBLE$CURVES
 10
23.60593889450598
 20
118.8653349697015
 30
0.0
  0
VERTEX
  5
230
  8
MAKE2D$VISIBLE$CURVES
 10
23.53672657237627
 20
118.859918059532
 30
0.0
  0
VERTEX
  5
231
  8
MAKE2D$VISIBLE$CURVES
 10
23.46774395137351
 20
118.8521022774233
 30
0.0
  0
VERTEX
  5
232
  8
MAKE2D$VISIBLE$CURVES
 10
23.39907415018303
 20
118.8418970407837
 30
0.0
  0
VERTEX
  5
233
  8
MAKE2D$VISIBLE$CURVES
 10
23.33079991056735
 20
118.8293146461288
 30
0.0
  0
VERTEX
  5
234
  8
MAKE2D$VISIBLE$CURVES
 10
23.26300349766649
 20
118.8143702542638
 30
0.0
  0
VERTEX
  5
235
  8
MAKE2D$VISIBLE$CURVES
 10
23.19576660087938
 20
118.7970818720171
 30
0.0
  0
VERTEX
  5
236
  8
MAKE2D$VISIBLE$CURVES
 10
23.12917023542747
 20
118.7774703305428
 30
0.0
  0
VERTEX
  5
237
  8
MAKE2D$VISIBLE$CURVES
 10
23.06329464474499
 20
118.7555592602208
 30
0.0
  0
VERTEX
  5
238
  8
MAKE2D$VISIBLE$CURVES
 10
22.99821920378878
 20
118.7313750621844
 30
0.0
  0
VERTEX
  5
239
  8
MAKE2D$VISIBLE$CURVES
 10
22.93402232339491
 20
118.7049468765082
 30
0.0
  0
VERTEX
  5
23A
  8
MAKE2D$VISIBLE$CURVES
 10
22.87078135580492
 20
118.6763065470981
 30
0.0
  0
VERTEX
  5
23B
  8
MAKE2D$VISIBLE$CURVES
 10
22.80857250146079
 20
118.6454885833199
 30
0.0
  0
VERTEX
  5
23C
  8
MAKE2D$VISIBLE$CURVES
 10
22.74747071718417
 20
118.6125301184197
 30
0.0
  0
VERTEX
  5
23D
  8
MAKE2D$VISIBLE$CURVES
 10
22.68754962586632
 20
118.5774708647807
 30
0.0
  0
VERTEX
  5
23E
  8
MAKE2D$VISIBLE$CURVES
 10
22.62888142775779
 20
118.5403530660728
 30
0.0
  0
VERTEX
  5
23F
  8
MAKE2D$VISIBLE$CURVES
 10
22.57153681346341
 20
118.5012214463526
 30
0.0
  0
VERTEX
  5
240
  8
MAKE2D$VISIBLE$CURVES
 10
22.51558487878179
 20
118.4601231561737
 30
0.0
  0
VERTEX
  5
241
  8
MAKE2D$VISIBLE$CURVES
 10
22.46109304143198
 20
118.417107715775
 30
0.0
  0
VERTEX
  5
242
  8
MAKE2D$VISIBLE$CURVES
 10
22.40812695983647
 20
118.3722269554117
 30
0.0
  0
VERTEX
  5
243
  8
MAKE2D$VISIBLE$CURVES
 10
22.35675045399699
 20
118.3255349529045
 30
0.0
  0
VERTEX
  5
244
  8
MAKE2D$VISIBLE$CURVES
 10
22.30702542860314
 20
118.2770879684795
 30
0.0
  0
VERTEX
  5
245
  8
MAKE2D$VISIBLE$CURVES
 10
22.25901179843555
 20
118.2269443769796
 30
0.0
  0
VERTEX
  5
246
  8
MAKE2D$VISIBLE$CURVES
 10
22.21276741617936
 20
118.1751645975273
 30
0.0
  0
VERTEX
  5
247
  8
MAKE2D$VISIBLE$CURVES
 10
22.16834800271414
 20
118.1218110207234
 30
0.0
  0
VERTEX
  5
248
  8
MAKE2D$VISIBLE$CURVES
 10
22.12580707997228
 20
118.0669479334726
 30
0.0
  0
VERTEX
  5
249
  8
MAKE2D$VISIBLE$CURVES
 10
22.08519590645398
 20
118.0106414415219
 30
0.0
  0
VERTEX
  5
24A
  8
MAKE2D$VISIBLE$CURVES
 10
22.04656341545893
 20
117.9529593898085
 30
0.0
  0
VERTEX
  5
24B
  8
MAKE2D$VISIBLE$CURVES
 10
22.00995615612925
 20
117.893971280712
 30
0.0
  0
VERTEX
  5
24C
  8
MAKE2D$VISIBLE$CURVES
 10
21.9754182373627
 20
117.8337481903093
 30
0.0
  0
VERTEX
  5
24D
  8
MAKE2D$VISIBLE$CURVES
 10
21.94299127466098
 20
117.772362682734
 30
0.0
  0
VERTEX
  5
24E
  8
MAKE2D$VISIBLE$CURVES
 10
21.91271433998742
 20
117.7098887227413
 30
0.0
  0
VERTEX
  5
24F
  8
MAKE2D$VISIBLE$CURVES
 10
21.88462391469153
 20
117.6464015865873
 30
0.0
  0
VERTEX
  5
250
  8
MAKE2D$VISIBLE$CURVES
 10
21.8587538455468
 20
117.5819777713261
 30
0.0
  0
VERTEX
  5
251
  8
MAKE2D$VISIBLE$CURVES
 10
21.83513530397164
 20
117.5166949026372
 30
0.0
  0
VERTEX
  5
252
  8
MAKE2D$VISIBLE$CURVES
 10
21.81379674847
 20
117.4506316412927
 30
0.0
  0
VERTEX
  5
253
  8
MAKE2D$VISIBLE$CURVES
 10
21.79476389033795
 20
117.3838675883772
 30
0.0
  0
VERTEX
  5
254
  8
MAKE2D$VISIBLE$CURVES
 10
21.77805966268903
 20
117.3164831893742
 30
0.0
  0
VERTEX
  5
255
  8
MAKE2D$VISIBLE$CURVES
 10
21.76370419281471
 20
117.2485596372361
 30
0.0
  0
VERTEX
  5
256
  8
MAKE2D$VISIBLE$CURVES
 10
21.75171477793816
 20
117.1801787745528
 30
0.0
  0
VERTEX
  5
257
  8
MAKE2D$VISIBLE$CURVES
 10
21.74210586437135
 20
117.1114229949381
 30
0.0
  0
VERTEX
  5
258
  8
MAKE2D$VISIBLE$CURVES
 10
21.73488903010644
 20
117.0423751437509
 30
0.0
  0
VERTEX
  5
259
  8
MAKE2D$VISIBLE$CURVES
 10
21.73007297086593
 20
116.9731184182741
 30
0.0
  0
VERTEX
  5
25A
  8
MAKE2D$VISIBLE$CURVES
 10
21.72766348962801
 20
116.9037362674676
 30
0.0
  0
VERTEX
  5
25B
  8
MAKE2D$VISIBLE$CURVES
 10
21.72766348962801
 20
116.8343122914193
 30
0.0
  0
VERTEX
  5
25C
  8
MAKE2D$VISIBLE$CURVES
 10
21.73007297086593
 20
116.7649301406128
 30
0.0
  0
VERTEX
  5
25D
  8
MAKE2D$VISIBLE$CURVES
 10
21.73488903010644
 20
116.695673415136
 30
0.0
  0
VERTEX
  5
25E
  8
MAKE2D$VISIBLE$CURVES
 10
21.74210586437135
 20
116.6266255639488
 30
0.0
  0
VERTEX
  5
25F
  8
MAKE2D$VISIBLE$CURVES
 10
21.75171477793816
 20
116.5578697843339
 30
0.0
  0
VERTEX
  5
260
  8
MAKE2D$VISIBLE$CURVES
 10
21.76370419281471
 20
116.4894889216508
 30
0.0
  0
VERTEX
  5
261
  8
MAKE2D$VISIBLE$CURVES
 10
21.77805966268903
 20
116.4215653695127
 30
0.0
  0
VERTEX
  5
262
  8
MAKE2D$VISIBLE$CURVES
 10
21.79476389033795
 20
116.3541809705097
 30
0.0
  0
VERTEX
  5
263
  8
MAKE2D$VISIBLE$CURVES
 10
21.81379674847
 20
116.2874169175941
 30
0.0
  0
VERTEX
  5
264
  8
MAKE2D$VISIBLE$CURVES
 10
21.83513530397164
 20
116.2213536562496
 30
0.0
  0
VERTEX
  5
265
  8
MAKE2D$VISIBLE$CURVES
 10
21.8587538455468
 20
116.1560707875607
 30
0.0
  0
VERTEX
  5
266
  8
MAKE2D$VISIBLE$CURVES
 10
21.88462391469153
 20
116.0916469722995
 30
0.0
  0
VERTEX
  5
267
  8
MAKE2D$VISIBLE$CURVES
 10
21.91271433998742
 20
116.0281598361454
 30
0.0
  0
VERTEX
  5
268
  8
MAKE2D$VISIBLE$CURVES
 10
21.94299127466098
 20
115.9656858761527
 30
0.0
  0
VERTEX
  5
269
  8
MAKE2D$VISIBLE$CURVES
 10
21.9754182373627
 20
115.9043003685775
 30
0.0
  0
VERTEX
  5
26A
  8
MAKE2D$VISIBLE$CURVES
 10
22.00995615612925
 20
115.8440772781748
 30
0.0
  0
VERTEX
  5
26B
  8
MAKE2D$VISIBLE$CURVES
 10
22.04656341545893
 20
115.7850891690783
 30
0.0
  0
VERTEX
  5
26C
  8
MAKE2D$VISIBLE$CURVES
 10
22.08519590645398
 20
115.7274071173647
 30
0.0
  0
VERTEX
  5
26D
  8
MAKE2D$VISIBLE$CURVES
 10
22.12580707997228
 20
115.671100625414
 30
0.0
  0
VERTEX
  5
26E
  8
MAKE2D$VISIBLE$CURVES
 10
22.16834800271414
 20
115.6162375381631
 30
0.0
  0
VERTEX
  5
26F
  8
MAKE2D$VISIBLE$CURVES
 10
22.21276741617936
 20
115.5628839613593
 30
0.0
  0
VERTEX
  5
270
  8
MAKE2D$VISIBLE$CURVES
 10
22.25901179843555
 20
115.5111041819069
 30
0.0
  0
VERTEX
  5
271
  8
MAKE2D$VISIBLE$CURVES
 10
22.30702542860314
 20
115.4609605904071
 30
0.0
  0
VERTEX
  5
272
  8
MAKE2D$VISIBLE$CURVES
 10
22.35675045399699
 20
115.4125136059821
 30
0.0
  0
VERTEX
  5
273
  8
MAKE2D$VISIBLE$CURVES
 10
22.40812695983647
 20
115.3658216034748
 30
0.0
  0
VERTEX
  5
274
  8
MAKE2D$VISIBLE$CURVES
 10
22.46109304143198
 20
115.3209408431115
 30
0.0
  0
VERTEX
  5
275
  8
MAKE2D$VISIBLE$CURVES
 10
22.51558487878179
 20
115.2779254027128
 30
0.0
  0
VERTEX
  5
276
  8
MAKE2D$VISIBLE$CURVES
 10
22.57153681346341
 20
115.2368271125339
 30
0.0
  0
VERTEX
  5
277
  8
MAKE2D$VISIBLE$CURVES
 10
22.62888142775779
 20
115.1976954928136
 30
0.0
  0
VERTEX
  5
278
  8
MAKE2D$VISIBLE$CURVES
 10
22.68754962586632
 20
115.1605776941057
 30
0.0
  0
VERTEX
  5
279
  8
MAKE2D$VISIBLE$CURVES
 10
22.74747071718417
 20
115.1255184404667
 30
0.0
  0
VERTEX
  5
27A
  8
MAKE2D$VISIBLE$CURVES
 10
22.80857250146079
 20
115.0925599755665
 30
0.0
  0
VERTEX
  5
27B
  8
MAKE2D$VISIBLE$CURVES
 10
22.87078135580492
 20
115.0617420117882
 30
0.0
  0
VERTEX
  5
27C
  8
MAKE2D$VISIBLE$CURVES
 10
22.93402232339491
 20
115.0331016823779
 30
0.0
  0
VERTEX
  5
27D
  8
MAKE2D$VISIBLE$CURVES
 10
22.99821920378878
 20
115.0066734967019
 30
0.0
  0
VERTEX
  5
27E
  8
MAKE2D$VISIBLE$CURVES
 10
23.06329464474499
 20
114.9824892986655
 30
0.0
  0
VERTEX
  5
27F
  8
MAKE2D$VISIBLE$CURVES
 10
23.12917023542747
 20
114.9605782283434
 30
0.0
  0
VERTEX
  5
280
  8
MAKE2D$VISIBLE$CURVES
 10
23.19576660087938
 20
114.940966686869
 30
0.0
  0
VERTEX
  5
281
  8
MAKE2D$VISIBLE$CURVES
 10
23.26300349766649
 20
114.9236783046224
 30
0.0
  0
VERTEX
  5
282
  8
MAKE2D$VISIBLE$CURVES
 10
23.33079991056735
 20
114.9087339127574
 30
0.0
  0
VERTEX
  5
283
  8
MAKE2D$VISIBLE$CURVES
 10
23.39907415018303
 20
114.8961515181023
 30
0.0
  0
VERTEX
  5
284
  8
MAKE2D$VISIBLE$CURVES
 10
23.46774395137351
 20
114.8859462814628
 30
0.0
  0
VERTEX
  5
285
  8
MAKE2D$VISIBLE$CURVES
 10
23.53672657237627
 20
114.8781304993539
 30
0.0
  0
VERTEX
  5
286
  8
MAKE2D$VISIBLE$CURVES
 10
23.60593889450598
 20
114.8727135891845
 30
0.0
  0
VERTEX
  5
287
  8
MAKE2D$VISIBLE$CURVES
 10
23.67529752230445
 20
114.8697020779094
 30
0.0
  0
VERTEX
  5
288
  8
MAKE2D$VISIBLE$CURVES
 10
23.74471888402974
 20
114.8690995941652
 30
0.0
  0
VERTEX
  5
289
  8
MAKE2D$VISIBLE$CURVES
 10
23.81411933234546
 20
114.8709068638977
 30
0.0
  0
VERTEX
  5
28A
  8
MAKE2D$VISIBLE$CURVES
 10
23.88341524511821
 20
114.8751217094878
 30
0.0
  0
VERTEX
  5
28B
  8
MAKE2D$VISIBLE$CURVES
 10
23.95252312617055
 20
114.8817390523748
 30
0.0
  0
VERTEX
  5
28C
  8
MAKE2D$VISIBLE$CURVES
 10
24.02135970588739
 20
114.8907509191759
 30
0.0
  0
VERTEX
  5
28D
  8
MAKE2D$VISIBLE$CURVES
 10
24.08984204155246
 20
114.9021464512936
 30
0.0
  0
VERTEX
  5
28E
  8
MAKE2D$VISIBLE$CURVES
 10
24.15788761728442
 20
114.9159119179991
 30
0.0
  0
VERTEX
  5
28F
  8
MAKE2D$VISIBLE$CURVES
 10
24.22541444346558
 20
114.9320307329774
 30
0.0
  0
VERTEX
  5
290
  8
MAKE2D$VISIBLE$CURVES
 10
24.29234115552941
 20
114.9504834743117
 30
0.0
  0
VERTEX
  5
291
  8
MAKE2D$VISIBLE$CURVES
 10
24.3585871119995
 20
114.971247907886
 30
0.0
  0
VERTEX
  5
292
  8
MAKE2D$VISIBLE$CURVES
 10
24.42407249165996
 20
114.9942990141752
 30
0.0
  0
VERTEX
  5
293
  8
MAKE2D$VISIBLE$CURVES
 10
24.48871838972724
 20
115.0196090183915
 30
0.0
  0
VERTEX
  5
294
  8
MAKE2D$VISIBLE$CURVES
 10
24.55244691292961
 20
115.0471474239513
 30
0.0
  0
VERTEX
  5
295
  8
MAKE2D$VISIBLE$CURVES
 10
24.61518127336063
 20
115.0768810492206
 30
0.0
  0
VERTEX
  5
296
  8
MAKE2D$VISIBLE$CURVES
 10
24.67684588100207
 20
115.108774067497
 30
0.0
  0
VERTEX
  5
297
  8
MAKE2D$VISIBLE$CURVES
 10
24.73736643480521
 20
115.1427880501774
 30
0.0
  0
VERTEX
  5
298
  8
MAKE2D$VISIBLE$CURVES
 10
24.7966700122152
 20
115.1788820130622
 30
0.0
  0
VERTEX
  5
299
  8
MAKE2D$VISIBLE$CURVES
 10
24.85468515704093
 20
115.2170124657369
 30
0.0
  0
VERTEX
  5
29A
  8
MAKE2D$VISIBLE$CURVES
 10
24.91134196555237
 20
115.2571334639763
 30
0.0
  0
VERTEX
  5
29B
  8
MAKE2D$VISIBLE$CURVES
 10
24.96657217070702
 20
115.2991966651025
 30
0.0
  0
VERTEX
  5
29C
  8
MAKE2D$VISIBLE$CURVES
 10
25.02030922440923
 20
115.343151386234
 30
0.0
  0
VERTEX
  5
29D
  8
MAKE2D$VISIBLE$CURVES
 10
25.07248837769572
 20
115.3889446653556
 30
0.0
  0
VERTEX
  5
29E
  8
MAKE2D$VISIBLE$CURVES
 10
25.12304675874935
 20
115.4365213251326
 30
0.0
  0
VERTEX
  5
29F
  8
MAKE2D$VISIBLE$CURVES
 10
25.17192344866095
 20
115.4858240393956
 30
0.0
  0
VERTEX
  5
2A0
  8
MAKE2D$VISIBLE$CURVES
 10
25.21905955482458
 20
115.536793402214
 30
0.0
  0
VERTEX
  5
2A1
  8
MAKE2D$VISIBLE$CURVES
 10
25.26439828190365
 20
115.5893679994754
 30
0.0
  0
VERTEX
  5
2A2
  8
MAKE2D$VISIBLE$CURVES
 10
25.30788500026398
 20
115.6434844828851
 30
0.0
  0
VERTEX
  5
2A3
  8
MAKE2D$VISIBLE$CURVES
 10
25.34946731179667
 20
115.6990776462954
 30
0.0
  0
VERTEX
  5
2A4
  8
MAKE2D$VISIBLE$CURVES
 10
25.38909511305434
 20
115.7560805042747
 30
0.0
  0
VERTEX
  5
2A5
  8
MAKE2D$VISIBLE$CURVES
 10
25.42672065562425
 20
115.8144243728188
 30
0.0
  0
VERTEX
  5
2A6
  8
MAKE2D$VISIBLE$CURVES
 10
25.46229860365844
 20
115.8740389521102
 30
0.0
  0
VERTEX
  5
2A7
  8
MAKE2D$VISIBLE$CURVES
 10
25.49578608849794
 20
115.9348524112243
 30
0.0
  0
VERTEX
  5
2A8
  8
MAKE2D$VISIBLE$CURVES
 10
25.52714276033572
 20
115.9967914746793
 30
0.0
  0
VERTEX
  5
2A9
  8
MAKE2D$VISIBLE$CURVES
 10
25.55633083682102
 20
116.059781510728
 30
0.0
  0
VERTEX
  5
2AA
  8
MAKE2D$VISIBLE$CURVES
 10
25.5833151485968
 20
116.1237466212835
 30
0.0
  0
VERTEX
  5
2AB
  8
MAKE2D$VISIBLE$CURVES
 10
25.60806318166948
 20
116.188609733369
 30
0.0
  0
VERTEX
  5
2AC
  8
MAKE2D$VISIBLE$CURVES
 10
25.63054511658544
 20
116.254292691987
 30
0.0
  0
VERTEX
  5
2AD
  8
MAKE2D$VISIBLE$CURVES
 10
25.65073386436421
 20
116.320716354288
 30
0.0
  0
VERTEX
  5
2AE
  8
MAKE2D$VISIBLE$CURVES
 10
25.66860509913846
 20
116.3878006849324
 30
0.0
  0
VERTEX
  5
2AF
  8
MAKE2D$VISIBLE$CURVES
 10
25.68413728746151
 20
116.4554648525271
 30
0.0
  0
VERTEX
  5
2B0
  8
MAKE2D$VISIBLE$CURVES
 10
25.69731171425616
 20
116.5236273270201
 30
0.0
  0
VERTEX
  5
2B1
  8
MAKE2D$VISIBLE$CURVES
 10
25.70811250536377
 20
116.5922059779386
 30
0.0
  0
VERTEX
  5
2B2
  8
MAKE2D$VISIBLE$CURVES
 10
25.71652664667278
 20
116.6611181733498
 30
0.0
  0
VERTEX
  5
2B3
  8
MAKE2D$VISIBLE$CURVES
 10
25.72254399979926
 20
116.7302808794257
 30
0.0
  0
VERTEX
  5
2B4
  8
MAKE2D$VISIBLE$CURVES
 10
25.72615731429966
 20
116.7996107604922
 30
0.0
  0
SEQEND
  5
A83
  8
MAKE2D$VISIBLE$CURVES
  0
POLYLINE
  5
73
  8
MAKE2D$VISIBLE$CURVES
 66
     1
 10
0.0
 20
0.0
 30
0.0
 70
     1
  0
VERTEX
  5
2B5
  8
MAKE2D$VISIBLE$CURVES
 10
225.862675883851
 20
116.8690242794426
 30
0.0
  0
VERTEX
  5
2B6
  8
MAKE2D$VISIBLE$CURVES
 10
225.8614709617387
 20
116.938437798393
 30
0.0
  0
VERTEX
  5
2B7
  8
MAKE2D$VISIBLE$CURVES
 10
225.8578576472383
 20
117.0077676794594
 30
0.0
  0
VERTEX
  5
2B8
  8
MAKE2D$VISIBLE$CURVES
 10
225.8518402941118
 20
117.0769303855353
 30
0.0
  0
VERTEX
  5
2B9
  8
MAKE2D$VISIBLE$CURVES
 10
225.8434261528028
 20
117.1458425809465
 30
0.0
  0
VERTEX
  5
2BA
  8
MAKE2D$VISIBLE$CURVES
 10
225.8326253616952
 20
117.2144212318651
 30
0.0
  0
VERTEX
  5
2BB
  8
MAKE2D$VISIBLE$CURVES
 10
225.8194509349005
 20
117.2825837063581
 30
0.0
  0
VERTEX
  5
2BC
  8
MAKE2D$VISIBLE$CURVES
 10
225.8039187465775
 20
117.3502478739527
 30
0.0
  0
VERTEX
  5
2BD
  8
MAKE2D$VISIBLE$CURVES
 10
225.7860475118032
 20
117.4173322045972
 30
0.0
  0
VERTEX
  5
2BE
  8
MAKE2D$VISIBLE$CURVES
 10
225.7658587640245
 20
117.4837558668982
 30
0.0
  0
VERTEX
  5
2BF
  8
MAKE2D$VISIBLE$CURVES
 10
225.7433768291085
 20
117.5494388255161
 30
0.0
  0
VERTEX
  5
2C0
  8
MAKE2D$VISIBLE$CURVES
 10
225.7186287960349
 20
117.6143019376018
 30
0.0
  0
VERTEX
  5
2C1
  8
MAKE2D$VISIBLE$CURVES
 10
225.6916444842601
 20
117.6782670481572
 30
0.0
  0
VERTEX
  5
2C2
  8
MAKE2D$VISIBLE$CURVES
 10
225.6624564077748
 20
117.741257084206
 30
0.0
  0
VERTEX
  5
2C3
  8
MAKE2D$VISIBLE$CURVES
 10
225.6310997359388
 20
117.803196147661
 30
0.0
  0
VERTEX
  5
2C4
  8
MAKE2D$VISIBLE$CURVES
 10
225.5976122510975
 20
117.8640096067751
 30
0.0
  0
VERTEX
  5
2C5
  8
MAKE2D$VISIBLE$CURVES
 10
225.5620343030633
 20
117.9236241860665
 30
0.0
  0
VERTEX
  5
2C6
  8
MAKE2D$VISIBLE$CURVES
 10
225.5244087604934
 20
117.9819680546105
 30
0.0
  0
VERTEX
  5
2C7
  8
MAKE2D$VISIBLE$CURVES
 10
225.4847809592357
 20
118.0389709125898
 30
0.0
  0
VERTEX
  5
2C8
  8
MAKE2D$VISIBLE$CURVES
 10
225.443198647703
 20
118.0945640760002
 30
0.0
  0
VERTEX
  5
2C9
  8
MAKE2D$VISIBLE$CURVES
 10
225.3997119293427
 20
118.1486805594099
 30
0.0
  0
VERTEX
  5
2CA
  8
MAKE2D$VISIBLE$CURVES
 10
225.3543732022636
 20
118.2012551566714
 30
0.0
  0
VERTEX
  5
2CB
  8
MAKE2D$VISIBLE$CURVES
 10
225.3072370961
 20
118.2522245194898
 30
0.0
  0
VERTEX
  5
2CC
  8
MAKE2D$VISIBLE$CURVES
 10
225.2583604061884
 20
118.3015272337528
 30
0.0
  0
VERTEX
  5
2CD
  8
MAKE2D$VISIBLE$CURVES
 10
225.2078020251348
 20
118.3491038935298
 30
0.0
  0
VERTEX
  5
2CE
  8
MAKE2D$VISIBLE$CURVES
 10
225.1556228718483
 20
118.3948971726514
 30
0.0
  0
VERTEX
  5
2CF
  8
MAKE2D$VISIBLE$CURVES
 10
225.1018858181461
 20
118.438851893783
 30
0.0
  0
VERTEX
  5
2D0
  8
MAKE2D$VISIBLE$CURVES
 10
225.0466556129914
 20
118.4809150949091
 30
0.0
  0
VERTEX
  5
2D1
  8
MAKE2D$VISIBLE$CURVES
 10
224.9899988044818
 20
118.5210360931486
 30
0.0
  0
VERTEX
  5
2D2
  8
MAKE2D$VISIBLE$CURVES
 10
224.9319836596542
 20
118.5591665458234
 30
0.0
  0
VERTEX
  5
2D3
  8
MAKE2D$VISIBLE$CURVES
 10
224.8726800822442
 20
118.5952605087081
 30
0.0
  0
VERTEX
  5
2D4
  8
MAKE2D$VISIBLE$CURVES
 10
224.8121595284411
 20
118.6292744913885
 30
0.0
  0
VERTEX
  5
2D5
  8
MAKE2D$VISIBLE$CURVES
 10
224.7504949207997
 20
118.6611675096649
 30
0.0
  0
VERTEX
  5
2D6
  8
MAKE2D$VISIBLE$CURVES
 10
224.6877605603686
 20
118.6909011349344
 30
0.0
  0
VERTEX
  5
2D7
  8
MAKE2D$VISIBLE$CURVES
 10
224.6240320371663
 20
118.718439540494
 30
0.0
  0
VERTEX
  5
2D8
  8
MAKE2D$VISIBLE$CURVES
 10
224.559386139099
 20
118.7437495447105
 30
0.0
  0
VERTEX
  5
2D9
  8
MAKE2D$VISIBLE$CURVES
 10
224.4939007594385
 20
118.7668006509997
 30
0.0
  0
VERTEX
  5
2DA
  8
MAKE2D$VISIBLE$CURVES
 10
224.4276548029684
 20
118.787565084574
 30
0.0
  0
VERTEX
  5
2DB
  8
MAKE2D$VISIBLE$CURVES
 10
224.3607280909046
 20
118.8060178259084
 30
0.0
  0
VERTEX
  5
2DC
  8
MAKE2D$VISIBLE$CURVES
 10
224.2932012647235
 20
118.8221366408867
 30
0.0
  0
VERTEX
  5
2DD
  8
MAKE2D$VISIBLE$CURVES
 10
224.2251556889915
 20
118.8359021075922
 30
0.0
  0
VERTEX
  5
2DE
  8
MAKE2D$VISIBLE$CURVES
 10
224.1566733533264
 20
118.8472976397099
 30
0.0
  0
VERTEX
  5
2DF
  8
MAKE2D$VISIBLE$CURVES
 10
224.0878367736096
 20
118.8563095065111
 30
0.0
  0
VERTEX
  5
2E0
  8
MAKE2D$VISIBLE$CURVES
 10
224.0187288925572
 20
118.8629268493981
 30
0.0
  0
VERTEX
  5
2E1
  8
MAKE2D$VISIBLE$CURVES
 10
223.9494329797845
 20
118.8671416949882
 30
0.0
  0
VERTEX
  5
2E2
  8
MAKE2D$VISIBLE$CURVES
 10
223.8800325314688
 20
118.8689489647208
 30
0.0
  0
VERTEX
  5
2E3
  8
MAKE2D$VISIBLE$CURVES
 10
223.8106111697435
 20
118.8683464809766
 30
0.0
  0
VERTEX
  5
2E4
  8
MAKE2D$VISIBLE$CURVES
 10
223.741252541945
 20
118.8653349697015
 30
0.0
  0
VERTEX
  5
2E5
  8
MAKE2D$VISIBLE$CURVES
 10
223.6720402198153
 20
118.859918059532
 30
0.0
  0
VERTEX
  5
2E6
  8
MAKE2D$VISIBLE$CURVES
 10
223.6030575988125
 20
118.8521022774233
 30
0.0
  0
VERTEX
  5
2E7
  8
MAKE2D$VISIBLE$CURVES
 10
223.5343877976221
 20
118.8418970407837
 30
0.0
  0
VERTEX
  5
2E8
  8
MAKE2D$VISIBLE$CURVES
 10
223.4661135580064
 20
118.8293146461287
 30
0.0
  0
VERTEX
  5
2E9
  8
MAKE2D$VISIBLE$CURVES
 10
223.3983171451055
 20
118.8143702542637
 30
0.0
  0
VERTEX
  5
2EA
  8
MAKE2D$VISIBLE$CURVES
 10
223.3310802483184
 20
118.7970818720171
 30
0.0
  0
VERTEX
  5
2EB
  8
MAKE2D$VISIBLE$CURVES
 10
223.2644838828665
 20
118.7774703305428
 30
0.0
  0
VERTEX
  5
2EC
  8
MAKE2D$VISIBLE$CURVES
 10
223.198608292184
 20
118.7555592602208
 30
0.0
  0
VERTEX
  5
2ED
  8
MAKE2D$VISIBLE$CURVES
 10
223.1335328512278
 20
118.7313750621843
 30
0.0
  0
VERTEX
  5
2EE
  8
MAKE2D$VISIBLE$CURVES
 10
223.0693359708339
 20
118.7049468765082
 30
0.0
  0
VERTEX
  5
2EF
  8
MAKE2D$VISIBLE$CURVES
 10
223.0060950032458
 20
118.6763065470981
 30
0.0
  0
VERTEX
  5
2F0
  8
MAKE2D$VISIBLE$CURVES
 10
222.9438861488989
 20
118.6454885833199
 30
0.0
  0
VERTEX
  5
2F1
  8
MAKE2D$VISIBLE$CURVES
 10
222.8827843646232
 20
118.6125301184196
 30
0.0
  0
VERTEX
  5
2F2
  8
MAKE2D$VISIBLE$CURVES
 10
222.8228632733054
 20
118.5774708647806
 30
0.0
  0
VERTEX
  5
2F3
  8
MAKE2D$VISIBLE$CURVES
 10
222.7641950751959
 20
118.5403530660728
 30
0.0
  0
VERTEX
  5
2F4
  8
MAKE2D$VISIBLE$CURVES
 10
222.7068504609024
 20
118.5012214463524
 30
0.0
  0
VERTEX
  5
2F5
  8
MAKE2D$VISIBLE$CURVES
 10
222.6508985262199
 20
118.4601231561737
 30
0.0
  0
VERTEX
  5
2F6
  8
MAKE2D$VISIBLE$CURVES
 10
222.596406688871
 20
118.417107715775
 30
0.0
  0
VERTEX
  5
2F7
  8
MAKE2D$VISIBLE$CURVES
 10
222.5434406072755
 20
118.3722269554117
 30
0.0
  0
VERTEX
  5
2F8
  8
MAKE2D$VISIBLE$CURVES
 10
222.492064101436
 20
118.3255349529044
 30
0.0
  0
VERTEX
  5
2F9
  8
MAKE2D$VISIBLE$CURVES
 10
222.4423390760422
 20
118.2770879684793
 30
0.0
  0
VERTEX
  5
2FA
  8
MAKE2D$VISIBLE$CURVES
 10
222.3943254458746
 20
118.2269443769796
 30
0.0
  0
VERTEX
  5
2FB
  8
MAKE2D$VISIBLE$CURVES
 10
222.3480810636184
 20
118.1751645975272
 30
0.0
  0
VERTEX
  5
2FC
  8
MAKE2D$VISIBLE$CURVES
 10
222.3036616501532
 20
118.1218110207234
 30
0.0
  0
VERTEX
  5
2FD
  8
MAKE2D$VISIBLE$CURVES
 10
222.2611207274113
 20
118.0669479334726
 30
0.0
  0
VERTEX
  5
2FE
  8
MAKE2D$VISIBLE$CURVES
 10
222.220509553893
 20
118.0106414415218
 30
0.0
  0
VERTEX
  5
2FF
  8
MAKE2D$VISIBLE$CURVES
 10
222.181877062898
 20
117.9529593898083
 30
0.0
  0
VERTEX
  5
300
  8
MAKE2D$VISIBLE$CURVES
 10
222.1452698035683
 20
117.8939712807118
 30
0.0
  0
VERTEX
  5
301
  8
MAKE2D$VISIBLE$CURVES
 10
222.1107318848017
 20
117.8337481903092
 30
0.0
  0
VERTEX
  5
302
  8
MAKE2D$VISIBLE$CURVES
 10
222.0783049221
 20
117.7723626827339
 30
0.0
  0
VERTEX
  5
303
  8
MAKE2D$VISIBLE$CURVES
 10
222.0480279874265
 20
117.7098887227412
 30
0.0
  0
VERTEX
  5
304
  8
MAKE2D$VISIBLE$CURVES
 10
222.0199375621306
 20
117.6464015865872
 30
0.0
  0
VERTEX
  5
305
  8
MAKE2D$VISIBLE$CURVES
 10
221.9940674929849
 20
117.581977771326
 30
0.0
  0
VERTEX
  5
306
  8
MAKE2D$VISIBLE$CURVES
 10
221.9704489514107
 20
117.5166949026371
 30
0.0
  0
VERTEX
  5
307
  8
MAKE2D$VISIBLE$CURVES
 10
221.949110395909
 20
117.4506316412925
 30
0.0
  0
VERTEX
  5
308
  8
MAKE2D$VISIBLE$CURVES
 10
221.930077537777
 20
117.3838675883771
 30
0.0
  0
VERTEX
  5
309
  8
MAKE2D$VISIBLE$CURVES
 10
221.9133733101281
 20
117.3164831893741
 30
0.0
  0
VERTEX
  5
30A
  8
MAKE2D$VISIBLE$CURVES
 10
221.8990178402537
 20
117.248559637236
 30
0.0
  0
VERTEX
  5
30B
  8
MAKE2D$VISIBLE$CURVES
 10
221.8870284253772
 20
117.1801787745526
 30
0.0
  0
VERTEX
  5
30C
  8
MAKE2D$VISIBLE$CURVES
 10
221.8774195118104
 20
117.111422994938
 30
0.0
  0
VERTEX
  5
30D
  8
MAKE2D$VISIBLE$CURVES
 10
221.8702026775455
 20
117.0423751437507
 30
0.0
  0
VERTEX
  5
30E
  8
MAKE2D$VISIBLE$CURVES
 10
221.8653866183068
 20
116.973118418274
 30
0.0
  0
VERTEX
  5
30F
  8
MAKE2D$VISIBLE$CURVES
 10
221.862977137067
 20
116.9037362674675
 30
0.0
  0
VERTEX
  5
310
  8
MAKE2D$VISIBLE$CURVES
 10
221.862977137067
 20
116.8343122914191
 30
0.0
  0
VERTEX
  5
311
  8
MAKE2D$VISIBLE$CURVES
 10
221.8653866183068
 20
116.7649301406126
 30
0.0
  0
VERTEX
  5
312
  8
MAKE2D$VISIBLE$CURVES
 10
221.8702026775455
 20
116.6956734151359
 30
0.0
  0
VERTEX
  5
313
  8
MAKE2D$VISIBLE$CURVES
 10
221.8774195118104
 20
116.6266255639487
 30
0.0
  0
VERTEX
  5
314
  8
MAKE2D$VISIBLE$CURVES
 10
221.8870284253772
 20
116.5578697843339
 30
0.0
  0
VERTEX
  5
315
  8
MAKE2D$VISIBLE$CURVES
 10
221.8990178402537
 20
116.4894889216507
 30
0.0
  0
VERTEX
  5
316
  8
MAKE2D$VISIBLE$CURVES
 10
221.9133733101281
 20
116.4215653695126
 30
0.0
  0
VERTEX
  5
317
  8
MAKE2D$VISIBLE$CURVES
 10
221.930077537777
 20
116.3541809705096
 30
0.0
  0
VERTEX
  5
318
  8
MAKE2D$VISIBLE$CURVES
 10
221.949110395909
 20
116.287416917594
 30
0.0
  0
VERTEX
  5
319
  8
MAKE2D$VISIBLE$CURVES
 10
221.9704489514107
 20
116.2213536562494
 30
0.0
  0
VERTEX
  5
31A
  8
MAKE2D$VISIBLE$CURVES
 10
221.9940674929849
 20
116.1560707875607
 30
0.0
  0
VERTEX
  5
31B
  8
MAKE2D$VISIBLE$CURVES
 10
222.0199375621306
 20
116.0916469722994
 30
0.0
  0
VERTEX
  5
31C
  8
MAKE2D$VISIBLE$CURVES
 10
222.0480279874265
 20
116.0281598361453
 30
0.0
  0
VERTEX
  5
31D
  8
MAKE2D$VISIBLE$CURVES
 10
222.0783049221
 20
115.9656858761527
 30
0.0
  0
VERTEX
  5
31E
  8
MAKE2D$VISIBLE$CURVES
 10
222.1107318848017
 20
115.9043003685773
 30
0.0
  0
VERTEX
  5
31F
  8
MAKE2D$VISIBLE$CURVES
 10
222.1452698035683
 20
115.8440772781747
 30
0.0
  0
VERTEX
  5
320
  8
MAKE2D$VISIBLE$CURVES
 10
222.181877062898
 20
115.7850891690782
 30
0.0
  0
VERTEX
  5
321
  8
MAKE2D$VISIBLE$CURVES
 10
222.220509553893
 20
115.7274071173647
 30
0.0
  0
VERTEX
  5
322
  8
MAKE2D$VISIBLE$CURVES
 10
222.2611207274113
 20
115.671100625414
 30
0.0
  0
VERTEX
  5
323
  8
MAKE2D$VISIBLE$CURVES
 10
222.3036616501532
 20
115.6162375381631
 30
0.0
  0
VERTEX
  5
324
  8
MAKE2D$VISIBLE$CURVES
 10
222.3480810636184
 20
115.5628839613593
 30
0.0
  0
VERTEX
  5
325
  8
MAKE2D$VISIBLE$CURVES
 10
222.3943254458746
 20
115.5111041819068
 30
0.0
  0
VERTEX
  5
326
  8
MAKE2D$VISIBLE$CURVES
 10
222.4423390760422
 20
115.460960590407
 30
0.0
  0
VERTEX
  5
327
  8
MAKE2D$VISIBLE$CURVES
 10
222.492064101436
 20
115.412513605982
 30
0.0
  0
VERTEX
  5
328
  8
MAKE2D$VISIBLE$CURVES
 10
222.5434406072755
 20
115.3658216034748
 30
0.0
  0
VERTEX
  5
329
  8
MAKE2D$VISIBLE$CURVES
 10
222.596406688871
 20
115.3209408431115
 30
0.0
  0
VERTEX
  5
32A
  8
MAKE2D$VISIBLE$CURVES
 10
222.6508985262199
 20
115.2779254027127
 30
0.0
  0
VERTEX
  5
32B
  8
MAKE2D$VISIBLE$CURVES
 10
222.7068504609024
 20
115.2368271125339
 30
0.0
  0
VERTEX
  5
32C
  8
MAKE2D$VISIBLE$CURVES
 10
222.7641950751959
 20
115.1976954928136
 30
0.0
  0
VERTEX
  5
32D
  8
MAKE2D$VISIBLE$CURVES
 10
222.8228632733054
 20
115.1605776941057
 30
0.0
  0
VERTEX
  5
32E
  8
MAKE2D$VISIBLE$CURVES
 10
222.8827843646232
 20
115.1255184404667
 30
0.0
  0
VERTEX
  5
32F
  8
MAKE2D$VISIBLE$CURVES
 10
222.9438861488989
 20
115.0925599755664
 30
0.0
  0
VERTEX
  5
330
  8
MAKE2D$VISIBLE$CURVES
 10
223.0060950032458
 20
115.0617420117882
 30
0.0
  0
VERTEX
  5
331
  8
MAKE2D$VISIBLE$CURVES
 10
223.0693359708339
 20
115.0331016823779
 30
0.0
  0
VERTEX
  5
332
  8
MAKE2D$VISIBLE$CURVES
 10
223.1335328512278
 20
115.0066734967019
 30
0.0
  0
VERTEX
  5
333
  8
MAKE2D$VISIBLE$CURVES
 10
223.198608292184
 20
114.9824892986654
 30
0.0
  0
VERTEX
  5
334
  8
MAKE2D$VISIBLE$CURVES
 10
223.2644838828665
 20
114.9605782283434
 30
0.0
  0
VERTEX
  5
335
  8
MAKE2D$VISIBLE$CURVES
 10
223.3310802483184
 20
114.940966686869
 30
0.0
  0
VERTEX
  5
336
  8
MAKE2D$VISIBLE$CURVES
 10
223.3983171451055
 20
114.9236783046224
 30
0.0
  0
VERTEX
  5
337
  8
MAKE2D$VISIBLE$CURVES
 10
223.4661135580064
 20
114.9087339127574
 30
0.0
  0
VERTEX
  5
338
  8
MAKE2D$VISIBLE$CURVES
 10
223.5343877976221
 20
114.8961515181023
 30
0.0
  0
VERTEX
  5
339
  8
MAKE2D$VISIBLE$CURVES
 10
223.6030575988125
 20
114.8859462814628
 30
0.0
  0
VERTEX
  5
33A
  8
MAKE2D$VISIBLE$CURVES
 10
223.6720402198153
 20
114.8781304993539
 30
0.0
  0
VERTEX
  5
33B
  8
MAKE2D$VISIBLE$CURVES
 10
223.741252541945
 20
114.8727135891845
 30
0.0
  0
VERTEX
  5
33C
  8
MAKE2D$VISIBLE$CURVES
 10
223.8106111697435
 20
114.8697020779094
 30
0.0
  0
VERTEX
  5
33D
  8
MAKE2D$VISIBLE$CURVES
 10
223.8800325314688
 20
114.8690995941652
 30
0.0
  0
VERTEX
  5
33E
  8
MAKE2D$VISIBLE$CURVES
 10
223.9494329797845
 20
114.8709068638977
 30
0.0
  0
VERTEX
  5
33F
  8
MAKE2D$VISIBLE$CURVES
 10
224.0187288925572
 20
114.8751217094878
 30
0.0
  0
VERTEX
  5
340
  8
MAKE2D$VISIBLE$CURVES
 10
224.0878367736096
 20
114.8817390523748
 30
0.0
  0
VERTEX
  5
341
  8
MAKE2D$VISIBLE$CURVES
 10
224.1566733533264
 20
114.8907509191759
 30
0.0
  0
VERTEX
  5
342
  8
MAKE2D$VISIBLE$CURVES
 10
224.2251556889915
 20
114.9021464512936
 30
0.0
  0
VERTEX
  5
343
  8
MAKE2D$VISIBLE$CURVES
 10
224.2932012647235
 20
114.9159119179992
 30
0.0
  0
VERTEX
  5
344
  8
MAKE2D$VISIBLE$CURVES
 10
224.3607280909046
 20
114.9320307329774
 30
0.0
  0
VERTEX
  5
345
  8
MAKE2D$VISIBLE$CURVES
 10
224.4276548029684
 20
114.9504834743117
 30
0.0
  0
VERTEX
  5
346
  8
MAKE2D$VISIBLE$CURVES
 10
224.4939007594385
 20
114.9712479078861
 30
0.0
  0
VERTEX
  5
347
  8
MAKE2D$VISIBLE$CURVES
 10
224.559386139099
 20
114.9942990141753
 30
0.0
  0
VERTEX
  5
348
  8
MAKE2D$VISIBLE$CURVES
 10
224.6240320371663
 20
115.0196090183916
 30
0.0
  0
VERTEX
  5
349
  8
MAKE2D$VISIBLE$CURVES
 10
224.6877605603686
 20
115.0471474239513
 30
0.0
  0
VERTEX
  5
34A
  8
MAKE2D$VISIBLE$CURVES
 10
224.7504949207997
 20
115.0768810492207
 30
0.0
  0
VERTEX
  5
34B
  8
MAKE2D$VISIBLE$CURVES
 10
224.8121595284411
 20
115.1087740674971
 30
0.0
  0
VERTEX
  5
34C
  8
MAKE2D$VISIBLE$CURVES
 10
224.8726800822442
 20
115.1427880501774
 30
0.0
  0
VERTEX
  5
34D
  8
MAKE2D$VISIBLE$CURVES
 10
224.9319836596542
 20
115.1788820130622
 30
0.0
  0
VERTEX
  5
34E
  8
MAKE2D$VISIBLE$CURVES
 10
224.9899988044818
 20
115.217012465737
 30
0.0
  0
VERTEX
  5
34F
  8
MAKE2D$VISIBLE$CURVES
 10
225.0466556129914
 20
115.2571334639763
 30
0.0
  0
VERTEX
  5
350
  8
MAKE2D$VISIBLE$CURVES
 10
225.1018858181461
 20
115.2991966651025
 30
0.0
  0
VERTEX
  5
351
  8
MAKE2D$VISIBLE$CURVES
 10
225.1556228718483
 20
115.3431513862341
 30
0.0
  0
VERTEX
  5
352
  8
MAKE2D$VISIBLE$CURVES
 10
225.2078020251348
 20
115.3889446653557
 30
0.0
  0
VERTEX
  5
353
  8
MAKE2D$VISIBLE$CURVES
 10
225.2583604061884
 20
115.4365213251327
 30
0.0
  0
VERTEX
  5
354
  8
MAKE2D$VISIBLE$CURVES
 10
225.3072370961
 20
115.4858240393957
 30
0.0
  0
VERTEX
  5
355
  8
MAKE2D$VISIBLE$CURVES
 10
225.3543732022636
 20
115.5367934022141
 30
0.0
  0
VERTEX
  5
356
  8
MAKE2D$VISIBLE$CURVES
 10
225.3997119293427
 20
115.5893679994755
 30
0.0
  0
VERTEX
  5
357
  8
MAKE2D$VISIBLE$CURVES
 10
225.443198647703
 20
115.6434844828852
 30
0.0
  0
VERTEX
  5
358
  8
MAKE2D$VISIBLE$CURVES
 10
225.4847809592357
 20
115.6990776462956
 30
0.0
  0
VERTEX
  5
359
  8
MAKE2D$VISIBLE$CURVES
 10
225.5244087604934
 20
115.7560805042748
 30
0.0
  0
VERTEX
  5
35A
  8
MAKE2D$VISIBLE$CURVES
 10
225.5620343030633
 20
115.8144243728188
 30
0.0
  0
VERTEX
  5
35B
  8
MAKE2D$VISIBLE$CURVES
 10
225.5976122510975
 20
115.8740389521103
 30
0.0
  0
VERTEX
  5
35C
  8
MAKE2D$VISIBLE$CURVES
 10
225.6310997359388
 20
115.9348524112244
 30
0.0
  0
VERTEX
  5
35D
  8
MAKE2D$VISIBLE$CURVES
 10
225.6624564077748
 20
115.9967914746794
 30
0.0
  0
VERTEX
  5
35E
  8
MAKE2D$VISIBLE$CURVES
 10
225.6916444842601
 20
116.0597815107282
 30
0.0
  0
VERTEX
  5
35F
  8
MAKE2D$VISIBLE$CURVES
 10
225.7186287960349
 20
116.1237466212835
 30
0.0
  0
VERTEX
  5
360
  8
MAKE2D$VISIBLE$CURVES
 10
225.7433768291085
 20
116.188609733369
 30
0.0
  0
VERTEX
  5
361
  8
MAKE2D$VISIBLE$CURVES
 10
225.7658587640245
 20
116.2542926919871
 30
0.0
  0
VERTEX
  5
362
  8
MAKE2D$VISIBLE$CURVES
 10
225.7860475118032
 20
116.3207163542881
 30
0.0
  0
VERTEX
  5
363
  8
MAKE2D$VISIBLE$CURVES
 10
225.8039187465775
 20
116.3878006849326
 30
0.0
  0
VERTEX
  5
364
  8
MAKE2D$VISIBLE$CURVES
 10
225.8194509349005
 20
116.4554648525272
 30
0.0
  0
VERTEX
  5
365
  8
MAKE2D$VISIBLE$CURVES
 10
225.8326253616952
 20
116.5236273270202
 30
0.0
  0
VERTEX
  5
366
  8
MAKE2D$VISIBLE$CURVES
 10
225.8434261528028
 20
116.5922059779386
 30
0.0
  0
VERTEX
  5
367
  8
MAKE2D$VISIBLE$CURVES
 10
225.8518402941118
 20
116.66111817335
 30
0.0
  0
VERTEX
  5
368
  8
MAKE2D$VISIBLE$CURVES
 10
225.8578576472383
 20
116.7302808794258
 30
0.0
  0
VERTEX
  5
369
  8
MAKE2D$VISIBLE$CURVES
 10
225.8614709617387
 20
116.7996107604923
 30
0.0
  0
SEQEND
  5
A84
  8
MAKE2D$VISIBLE$CURVES
  0
POLYLINE
  5
74
  8
MAKE2D$VISIBLE$CURVES
 66
     1
 10
0.0
 20
0.0
 30
0.0
 70
     1
  0
VERTEX
  5
36A
  8
MAKE2D$VISIBLE$CURVES
 10
225.862675883851
 20
283.3765424000676
 30
0.0
  0
VERTEX
  5
36B
  8
MAKE2D$VISIBLE$CURVES
 10
225.8614709617387
 20
283.4459559190179
 30
0.0
  0
VERTEX
  5
36C
  8
MAKE2D$VISIBLE$CURVES
 10
225.8578576472383
 20
283.5152858000844
 30
0.0
  0
VERTEX
  5
36D
  8
MAKE2D$VISIBLE$CURVES
 10
225.8518402941118
 20
283.5844485061602
 30
0.0
  0
VERTEX
  5
36E
  8
MAKE2D$VISIBLE$CURVES
 10
225.8434261528028
 20
283.6533607015715
 30
0.0
  0
VERTEX
  5
36F
  8
MAKE2D$VISIBLE$CURVES
 10
225.8326253616952
 20
283.72193935249
 30
0.0
  0
VERTEX
  5
370
  8
MAKE2D$VISIBLE$CURVES
 10
225.8194509349005
 20
283.7901018269829
 30
0.0
  0
VERTEX
  5
371
  8
MAKE2D$VISIBLE$CURVES
 10
225.8039187465775
 20
283.8577659945776
 30
0.0
  0
VERTEX
  5
372
  8
MAKE2D$VISIBLE$CURVES
 10
225.7860475118032
 20
283.9248503252221
 30
0.0
  0
VERTEX
  5
373
  8
MAKE2D$VISIBLE$CURVES
 10
225.7658587640245
 20
283.9912739875231
 30
0.0
  0
VERTEX
  5
374
  8
MAKE2D$VISIBLE$CURVES
 10
225.7433768291085
 20
284.0569569461411
 30
0.0
  0
VERTEX
  5
375
  8
MAKE2D$VISIBLE$CURVES
 10
225.7186287960349
 20
284.1218200582267
 30
0.0
  0
VERTEX
  5
376
  8
MAKE2D$VISIBLE$CURVES
 10
225.6916444842601
 20
284.185785168782
 30
0.0
  0
VERTEX
  5
377
  8
MAKE2D$VISIBLE$CURVES
 10
225.6624564077748
 20
284.2487752048308
 30
0.0
  0
VERTEX
  5
378
  8
MAKE2D$VISIBLE$CURVES
 10
225.6310997359388
 20
284.3107142682859
 30
0.0
  0
VERTEX
  5
379
  8
MAKE2D$VISIBLE$CURVES
 10
225.5976122510975
 20
284.3715277274
 30
0.0
  0
VERTEX
  5
37A
  8
MAKE2D$VISIBLE$CURVES
 10
225.5620343030633
 20
284.4311423066914
 30
0.0
  0
VERTEX
  5
37B
  8
MAKE2D$VISIBLE$CURVES
 10
225.5244087604934
 20
284.4894861752355
 30
0.0
  0
VERTEX
  5
37C
  8
MAKE2D$VISIBLE$CURVES
 10
225.4847809592357
 20
284.5464890332147
 30
0.0
  0
VERTEX
  5
37D
  8
MAKE2D$VISIBLE$CURVES
 10
225.443198647703
 20
284.6020821966252
 30
0.0
  0
VERTEX
  5
37E
  8
MAKE2D$VISIBLE$CURVES
 10
225.3997119293427
 20
284.6561986800349
 30
0.0
  0
VERTEX
  5
37F
  8
MAKE2D$VISIBLE$CURVES
 10
225.3543732022636
 20
284.7087732772962
 30
0.0
  0
VERTEX
  5
380
  8
MAKE2D$VISIBLE$CURVES
 10
225.3072370961
 20
284.7597426401146
 30
0.0
  0
VERTEX
  5
381
  8
MAKE2D$VISIBLE$CURVES
 10
225.2583604061884
 20
284.8090453543776
 30
0.0
  0
VERTEX
  5
382
  8
MAKE2D$VISIBLE$CURVES
 10
225.2078020251348
 20
284.8566220141547
 30
0.0
  0
VERTEX
  5
383
  8
MAKE2D$VISIBLE$CURVES
 10
225.1556228718483
 20
284.9024152932762
 30
0.0
  0
VERTEX
  5
384
  8
MAKE2D$VISIBLE$CURVES
 10
225.1018858181461
 20
284.9463700144079
 30
0.0
  0
VERTEX
  5
385
  8
MAKE2D$VISIBLE$CURVES
 10
225.0466556129914
 20
284.988433215534
 30
0.0
  0
VERTEX
  5
386
  8
MAKE2D$VISIBLE$CURVES
 10
224.9899988044818
 20
285.0285542137734
 30
0.0
  0
VERTEX
  5
387
  8
MAKE2D$VISIBLE$CURVES
 10
224.9319836596542
 20
285.0666846664483
 30
0.0
  0
VERTEX
  5
388
  8
MAKE2D$VISIBLE$CURVES
 10
224.8726800822442
 20
285.102778629333
 30
0.0
  0
VERTEX
  5
389
  8
MAKE2D$VISIBLE$CURVES
 10
224.8121595284411
 20
285.1367926120134
 30
0.0
  0
VERTEX
  5
38A
  8
MAKE2D$VISIBLE$CURVES
 10
224.7504949207997
 20
285.1686856302898
 30
0.0
  0
VERTEX
  5
38B
  8
MAKE2D$VISIBLE$CURVES
 10
224.6877605603686
 20
285.1984192555591
 30
0.0
  0
VERTEX
  5
38C
  8
MAKE2D$VISIBLE$CURVES
 10
224.6240320371663
 20
285.2259576611189
 30
0.0
  0
VERTEX
  5
38D
  8
MAKE2D$VISIBLE$CURVES
 10
224.559386139099
 20
285.2512676653353
 30
0.0
  0
VERTEX
  5
38E
  8
MAKE2D$VISIBLE$CURVES
 10
224.4939007594385
 20
285.2743187716245
 30
0.0
  0
VERTEX
  5
38F
  8
MAKE2D$VISIBLE$CURVES
 10
224.4276548029684
 20
285.2950832051989
 30
0.0
  0
VERTEX
  5
390
  8
MAKE2D$VISIBLE$CURVES
 10
224.3607280909046
 20
285.3135359465332
 30
0.0
  0
VERTEX
  5
391
  8
MAKE2D$VISIBLE$CURVES
 10
224.2932012647235
 20
285.3296547615114
 30
0.0
  0
VERTEX
  5
392
  8
MAKE2D$VISIBLE$CURVES
 10
224.2251556889915
 20
285.343420228217
 30
0.0
  0
VERTEX
  5
393
  8
MAKE2D$VISIBLE$CURVES
 10
224.1566733533264
 20
285.3548157603346
 30
0.0
  0
VERTEX
  5
394
  8
MAKE2D$VISIBLE$CURVES
 10
224.0878367736096
 20
285.3638276271359
 30
0.0
  0
VERTEX
  5
395
  8
MAKE2D$VISIBLE$CURVES
 10
224.0187288925572
 20
285.3704449700228
 30
0.0
  0
VERTEX
  5
396
  8
MAKE2D$VISIBLE$CURVES
 10
223.9494329797845
 20
285.374659815613
 30
0.0
  0
VERTEX
  5
397
  8
MAKE2D$VISIBLE$CURVES
 10
223.8800325314688
 20
285.3764670853456
 30
0.0
  0
VERTEX
  5
398
  8
MAKE2D$VISIBLE$CURVES
 10
223.8106111697435
 20
285.3758646016014
 30
0.0
  0
VERTEX
  5
399
  8
MAKE2D$VISIBLE$CURVES
 10
223.741252541945
 20
285.3728530903263
 30
0.0
  0
VERTEX
  5
39A
  8
MAKE2D$VISIBLE$CURVES
 10
223.6720402198153
 20
285.3674361801569
 30
0.0
  0
VERTEX
  5
39B
  8
MAKE2D$VISIBLE$CURVES
 10
223.6030575988125
 20
285.3596203980481
 30
0.0
  0
VERTEX
  5
39C
  8
MAKE2D$VISIBLE$CURVES
 10
223.5343877976221
 20
285.3494151614086
 30
0.0
  0
VERTEX
  5
39D
  8
MAKE2D$VISIBLE$CURVES
 10
223.4661135580064
 20
285.3368327667534
 30
0.0
  0
VERTEX
  5
39E
  8
MAKE2D$VISIBLE$CURVES
 10
223.3983171451055
 20
285.3218883748885
 30
0.0
  0
VERTEX
  5
39F
  8
MAKE2D$VISIBLE$CURVES
 10
223.3310802483184
 20
285.3045999926419
 30
0.0
  0
VERTEX
  5
3A0
  8
MAKE2D$VISIBLE$CURVES
 10
223.2644838828665
 20
285.2849884511675
 30
0.0
  0
VERTEX
  5
3A1
  8
MAKE2D$VISIBLE$CURVES
 10
223.198608292184
 20
285.2630773808455
 30
0.0
  0
VERTEX
  5
3A2
  8
MAKE2D$VISIBLE$CURVES
 10
223.1335328512278
 20
285.238893182809
 30
0.0
  0
VERTEX
  5
3A3
  8
MAKE2D$VISIBLE$CURVES
 10
223.0693359708339
 20
285.2124649971331
 30
0.0
  0
VERTEX
  5
3A4
  8
MAKE2D$VISIBLE$CURVES
 10
223.0060950032458
 20
285.1838246677229
 30
0.0
  0
VERTEX
  5
3A5
  8
MAKE2D$VISIBLE$CURVES
 10
222.9438861488989
 20
285.1530067039446
 30
0.0
  0
VERTEX
  5
3A6
  8
MAKE2D$VISIBLE$CURVES
 10
222.8827843646232
 20
285.1200482390444
 30
0.0
  0
VERTEX
  5
3A7
  8
MAKE2D$VISIBLE$CURVES
 10
222.8228632733054
 20
285.0849889854053
 30
0.0
  0
VERTEX
  5
3A8
  8
MAKE2D$VISIBLE$CURVES
 10
222.7641950751959
 20
285.0478711866975
 30
0.0
  0
VERTEX
  5
3A9
  8
MAKE2D$VISIBLE$CURVES
 10
222.7068504609024
 20
285.0087395669772
 30
0.0
  0
VERTEX
  5
3AA
  8
MAKE2D$VISIBLE$CURVES
 10
222.6508985262199
 20
284.9676412767984
 30
0.0
  0
VERTEX
  5
3AB
  8
MAKE2D$VISIBLE$CURVES
 10
222.596406688871
 20
284.9246258363997
 30
0.0
  0
VERTEX
  5
3AC
  8
MAKE2D$VISIBLE$CURVES
 10
222.5434406072755
 20
284.8797450760364
 30
0.0
  0
VERTEX
  5
3AD
  8
MAKE2D$VISIBLE$CURVES
 10
222.492064101436
 20
284.8330530735292
 30
0.0
  0
VERTEX
  5
3AE
  8
MAKE2D$VISIBLE$CURVES
 10
222.4423390760422
 20
284.7846060891042
 30
0.0
  0
VERTEX
  5
3AF
  8
MAKE2D$VISIBLE$CURVES
 10
222.3943254458746
 20
284.7344624976044
 30
0.0
  0
VERTEX
  5
3B0
  8
MAKE2D$VISIBLE$CURVES
 10
222.3480810636184
 20
284.6826827181519
 30
0.0
  0
VERTEX
  5
3B1
  8
MAKE2D$VISIBLE$CURVES
 10
222.3036616501532
 20
284.6293291413481
 30
0.0
  0
VERTEX
  5
3B2
  8
MAKE2D$VISIBLE$CURVES
 10
222.2611207274113
 20
284.5744660540973
 30
0.0
  0
VERTEX
  5
3B3
  8
MAKE2D$VISIBLE$CURVES
 10
222.220509553893
 20
284.5181595621465
 30
0.0
  0
VERTEX
  5
3B4
  8
MAKE2D$VISIBLE$CURVES
 10
222.181877062898
 20
284.460477510433
 30
0.0
  0
VERTEX
  5
3B5
  8
MAKE2D$VISIBLE$CURVES
 10
222.1452698035683
 20
284.4014894013364
 30
0.0
  0
VERTEX
  5
3B6
  8
MAKE2D$VISIBLE$CURVES
 10
222.1107318848017
 20
284.3412663109339
 30
0.0
  0
VERTEX
  5
3B7
  8
MAKE2D$VISIBLE$CURVES
 10
222.0783049221
 20
284.2798808033586
 30
0.0
  0
VERTEX
  5
3B8
  8
MAKE2D$VISIBLE$CURVES
 10
222.0480279874265
 20
284.2174068433659
 30
0.0
  0
VERTEX
  5
3B9
  8
MAKE2D$VISIBLE$CURVES
 10
222.0199375621306
 20
284.1539197072119
 30
0.0
  0
VERTEX
  5
3BA
  8
MAKE2D$VISIBLE$CURVES
 10
221.9940674929849
 20
284.0894958919507
 30
0.0
  0
VERTEX
  5
3BB
  8
MAKE2D$VISIBLE$CURVES
 10
221.9704489514107
 20
284.0242130232618
 30
0.0
  0
VERTEX
  5
3BC
  8
MAKE2D$VISIBLE$CURVES
 10
221.949110395909
 20
283.9581497619173
 30
0.0
  0
VERTEX
  5
3BD
  8
MAKE2D$VISIBLE$CURVES
 10
221.930077537777
 20
283.8913857090018
 30
0.0
  0
VERTEX
  5
3BE
  8
MAKE2D$VISIBLE$CURVES
 10
221.9133733101281
 20
283.8240013099987
 30
0.0
  0
VERTEX
  5
3BF
  8
MAKE2D$VISIBLE$CURVES
 10
221.8990178402537
 20
283.7560777578607
 30
0.0
  0
VERTEX
  5
3C0
  8
MAKE2D$VISIBLE$CURVES
 10
221.8870284253772
 20
283.6876968951774
 30
0.0
  0
VERTEX
  5
3C1
  8
MAKE2D$VISIBLE$CURVES
 10
221.8774195118104
 20
283.6189411155626
 30
0.0
  0
VERTEX
  5
3C2
  8
MAKE2D$VISIBLE$CURVES
 10
221.8702026775455
 20
283.5498932643755
 30
0.0
  0
VERTEX
  5
3C3
  8
MAKE2D$VISIBLE$CURVES
 10
221.8653866183068
 20
283.4806365388987
 30
0.0
  0
VERTEX
  5
3C4
  8
MAKE2D$VISIBLE$CURVES
 10
221.862977137067
 20
283.4112543880922
 30
0.0
  0
VERTEX
  5
3C5
  8
MAKE2D$VISIBLE$CURVES
 10
221.862977137067
 20
283.3418304120437
 30
0.0
  0
VERTEX
  5
3C6
  8
MAKE2D$VISIBLE$CURVES
 10
221.8653866183068
 20
283.2724482612374
 30
0.0
  0
VERTEX
  5
3C7
  8
MAKE2D$VISIBLE$CURVES
 10
221.8702026775455
 20
283.2031915357606
 30
0.0
  0
VERTEX
  5
3C8
  8
MAKE2D$VISIBLE$CURVES
 10
221.8774195118104
 20
283.1341436845734
 30
0.0
  0
VERTEX
  5
3C9
  8
MAKE2D$VISIBLE$CURVES
 10
221.8870284253772
 20
283.0653879049586
 30
0.0
  0
VERTEX
  5
3CA
  8
MAKE2D$VISIBLE$CURVES
 10
221.8990178402537
 20
282.9970070422754
 30
0.0
  0
VERTEX
  5
3CB
  8
MAKE2D$VISIBLE$CURVES
 10
221.9133733101281
 20
282.9290834901373
 30
0.0
  0
VERTEX
  5
3CC
  8
MAKE2D$VISIBLE$CURVES
 10
221.930077537777
 20
282.8616990911343
 30
0.0
  0
VERTEX
  5
3CD
  8
MAKE2D$VISIBLE$CURVES
 10
221.949110395909
 20
282.7949350382187
 30
0.0
  0
VERTEX
  5
3CE
  8
MAKE2D$VISIBLE$CURVES
 10
221.9704489514107
 20
282.7288717768742
 30
0.0
  0
VERTEX
  5
3CF
  8
MAKE2D$VISIBLE$CURVES
 10
221.9940674929849
 20
282.6635889081853
 30
0.0
  0
VERTEX
  5
3D0
  8
MAKE2D$VISIBLE$CURVES
 10
222.0199375621306
 20
282.5991650929241
 30
0.0
  0
VERTEX
  5
3D1
  8
MAKE2D$VISIBLE$CURVES
 10
222.0480279874265
 20
282.5356779567701
 30
0.0
  0
VERTEX
  5
3D2
  8
MAKE2D$VISIBLE$CURVES
 10
222.0783049221
 20
282.4732039967774
 30
0.0
  0
VERTEX
  5
3D3
  8
MAKE2D$VISIBLE$CURVES
 10
222.1107318848017
 20
282.4118184892021
 30
0.0
  0
VERTEX
  5
3D4
  8
MAKE2D$VISIBLE$CURVES
 10
222.1452698035683
 20
282.3515953987994
 30
0.0
  0
VERTEX
  5
3D5
  8
MAKE2D$VISIBLE$CURVES
 10
222.181877062898
 20
282.2926072897029
 30
0.0
  0
VERTEX
  5
3D6
  8
MAKE2D$VISIBLE$CURVES
 10
222.220509553893
 20
282.2349252379894
 30
0.0
  0
VERTEX
  5
3D7
  8
MAKE2D$VISIBLE$CURVES
 10
222.2611207274113
 20
282.1786187460387
 30
0.0
  0
VERTEX
  5
3D8
  8
MAKE2D$VISIBLE$CURVES
 10
222.3036616501532
 20
282.1237556587879
 30
0.0
  0
VERTEX
  5
3D9
  8
MAKE2D$VISIBLE$CURVES
 10
222.3480810636184
 20
282.070402081984
 30
0.0
  0
VERTEX
  5
3DA
  8
MAKE2D$VISIBLE$CURVES
 10
222.3943254458746
 20
282.0186223025316
 30
0.0
  0
VERTEX
  5
3DB
  8
MAKE2D$VISIBLE$CURVES
 10
222.4423390760422
 20
281.9684787110317
 30
0.0
  0
VERTEX
  5
3DC
  8
MAKE2D$VISIBLE$CURVES
 10
222.492064101436
 20
281.9200317266068
 30
0.0
  0
VERTEX
  5
3DD
  8
MAKE2D$VISIBLE$CURVES
 10
222.5434406072755
 20
281.8733397240995
 30
0.0
  0
VERTEX
  5
3DE
  8
MAKE2D$VISIBLE$CURVES
 10
222.596406688871
 20
281.8284589637362
 30
0.0
  0
VERTEX
  5
3DF
  8
MAKE2D$VISIBLE$CURVES
 10
222.6508985262199
 20
281.7854435233374
 30
0.0
  0
VERTEX
  5
3E0
  8
MAKE2D$VISIBLE$CURVES
 10
222.7068504609024
 20
281.7443452331586
 30
0.0
  0
VERTEX
  5
3E1
  8
MAKE2D$VISIBLE$CURVES
 10
222.7641950751959
 20
281.7052136134383
 30
0.0
  0
VERTEX
  5
3E2
  8
MAKE2D$VISIBLE$CURVES
 10
222.8228632733054
 20
281.6680958147303
 30
0.0
  0
VERTEX
  5
3E3
  8
MAKE2D$VISIBLE$CURVES
 10
222.8827843646232
 20
281.6330365610914
 30
0.0
  0
VERTEX
  5
3E4
  8
MAKE2D$VISIBLE$CURVES
 10
222.9438861488989
 20
281.6000780961912
 30
0.0
  0
VERTEX
  5
3E5
  8
MAKE2D$VISIBLE$CURVES
 10
223.0060950032458
 20
281.5692601324129
 30
0.0
  0
VERTEX
  5
3E6
  8
MAKE2D$VISIBLE$CURVES
 10
223.0693359708339
 20
281.5406198030027
 30
0.0
  0
VERTEX
  5
3E7
  8
MAKE2D$VISIBLE$CURVES
 10
223.1335328512278
 20
281.5141916173266
 30
0.0
  0
VERTEX
  5
3E8
  8
MAKE2D$VISIBLE$CURVES
 10
223.198608292184
 20
281.4900074192902
 30
0.0
  0
VERTEX
  5
3E9
  8
MAKE2D$VISIBLE$CURVES
 10
223.2644838828665
 20
281.4680963489681
 30
0.0
  0
VERTEX
  5
3EA
  8
MAKE2D$VISIBLE$CURVES
 10
223.3310802483184
 20
281.4484848074938
 30
0.0
  0
VERTEX
  5
3EB
  8
MAKE2D$VISIBLE$CURVES
 10
223.3983171451055
 20
281.4311964252472
 30
0.0
  0
VERTEX
  5
3EC
  8
MAKE2D$VISIBLE$CURVES
 10
223.4661135580064
 20
281.4162520333822
 30
0.0
  0
VERTEX
  5
3ED
  8
MAKE2D$VISIBLE$CURVES
 10
223.5343877976221
 20
281.4036696387271
 30
0.0
  0
VERTEX
  5
3EE
  8
MAKE2D$VISIBLE$CURVES
 10
223.6030575988125
 20
281.3934644020875
 30
0.0
  0
VERTEX
  5
3EF
  8
MAKE2D$VISIBLE$CURVES
 10
223.6720402198153
 20
281.3856486199787
 30
0.0
  0
VERTEX
  5
3F0
  8
MAKE2D$VISIBLE$CURVES
 10
223.741252541945
 20
281.3802317098093
 30
0.0
  0
VERTEX
  5
3F1
  8
MAKE2D$VISIBLE$CURVES
 10
223.8106111697435
 20
281.3772201985342
 30
0.0
  0
VERTEX
  5
3F2
  8
MAKE2D$VISIBLE$CURVES
 10
223.8800325314688
 20
281.37661771479
 30
0.0
  0
VERTEX
  5
3F3
  8
MAKE2D$VISIBLE$CURVES
 10
223.9494329797845
 20
281.3784249845226
 30
0.0
  0
VERTEX
  5
3F4
  8
MAKE2D$VISIBLE$CURVES
 10
224.0187288925572
 20
281.3826398301127
 30
0.0
  0
VERTEX
  5
3F5
  8
MAKE2D$VISIBLE$CURVES
 10
224.0878367736096
 20
281.3892571729997
 30
0.0
  0
VERTEX
  5
3F6
  8
MAKE2D$VISIBLE$CURVES
 10
224.1566733533264
 20
281.3982690398007
 30
0.0
  0
VERTEX
  5
3F7
  8
MAKE2D$VISIBLE$CURVES
 10
224.2251556889915
 20
281.4096645719185
 30
0.0
  0
VERTEX
  5
3F8
  8
MAKE2D$VISIBLE$CURVES
 10
224.2932012647235
 20
281.423430038624
 30
0.0
  0
VERTEX
  5
3F9
  8
MAKE2D$VISIBLE$CURVES
 10
224.3607280909046
 20
281.4395488536022
 30
0.0
  0
VERTEX
  5
3FA
  8
MAKE2D$VISIBLE$CURVES
 10
224.4276548029684
 20
281.4580015949365
 30
0.0
  0
VERTEX
  5
3FB
  8
MAKE2D$VISIBLE$CURVES
 10
224.4939007594385
 20
281.4787660285108
 30
0.0
  0
VERTEX
  5
3FC
  8
MAKE2D$VISIBLE$CURVES
 10
224.559386139099
 20
281.5018171348001
 30
0.0
  0
VERTEX
  5
3FD
  8
MAKE2D$VISIBLE$CURVES
 10
224.6240320371663
 20
281.5271271390164
 30
0.0
  0
VERTEX
  5
3FE
  8
MAKE2D$VISIBLE$CURVES
 10
224.6877605603686
 20
281.5546655445762
 30
0.0
  0
VERTEX
  5
3FF
  8
MAKE2D$VISIBLE$CURVES
 10
224.7504949207997
 20
281.5843991698456
 30
0.0
  0
VERTEX
  5
400
  8
MAKE2D$VISIBLE$CURVES
 10
224.8121595284411
 20
281.6162921881219
 30
0.0
  0
VERTEX
  5
401
  8
MAKE2D$VISIBLE$CURVES
 10
224.8726800822442
 20
281.6503061708024
 30
0.0
  0
VERTEX
  5
402
  8
MAKE2D$VISIBLE$CURVES
 10
224.9319836596542
 20
281.6864001336871
 30
0.0
  0
VERTEX
  5
403
  8
MAKE2D$VISIBLE$CURVES
 10
224.9899988044818
 20
281.7245305863619
 30
0.0
  0
VERTEX
  5
404
  8
MAKE2D$VISIBLE$CURVES
 10
225.0466556129914
 20
281.7646515846014
 30
0.0
  0
VERTEX
  5
405
  8
MAKE2D$VISIBLE$CURVES
 10
225.1018858181461
 20
281.8067147857274
 30
0.0
  0
VERTEX
  5
406
  8
MAKE2D$VISIBLE$CURVES
 10
225.1556228718483
 20
281.850669506859
 30
0.0
  0
VERTEX
  5
407
  8
MAKE2D$VISIBLE$CURVES
 10
225.2078020251348
 20
281.8964627859806
 30
0.0
  0
VERTEX
  5
408
  8
MAKE2D$VISIBLE$CURVES
 10
225.2583604061884
 20
281.9440394457576
 30
0.0
  0
VERTEX
  5
409
  8
MAKE2D$VISIBLE$CURVES
 10
225.3072370961
 20
281.9933421600206
 30
0.0
  0
VERTEX
  5
40A
  8
MAKE2D$VISIBLE$CURVES
 10
225.3543732022636
 20
282.044311522839
 30
0.0
  0
VERTEX
  5
40B
  8
MAKE2D$VISIBLE$CURVES
 10
225.3997119293427
 20
282.0968861201004
 30
0.0
  0
VERTEX
  5
40C
  8
MAKE2D$VISIBLE$CURVES
 10
225.443198647703
 20
282.1510026035101
 30
0.0
  0
VERTEX
  5
40D
  8
MAKE2D$VISIBLE$CURVES
 10
225.4847809592357
 20
282.2065957669205
 30
0.0
  0
VERTEX
  5
40E
  8
MAKE2D$VISIBLE$CURVES
 10
225.5244087604934
 20
282.2635986248997
 30
0.0
  0
VERTEX
  5
40F
  8
MAKE2D$VISIBLE$CURVES
 10
225.5620343030633
 20
282.3219424934438
 30
0.0
  0
VERTEX
  5
410
  8
MAKE2D$VISIBLE$CURVES
 10
225.5976122510975
 20
282.3815570727353
 30
0.0
  0
VERTEX
  5
411
  8
MAKE2D$VISIBLE$CURVES
 10
225.6310997359388
 20
282.4423705318493
 30
0.0
  0
VERTEX
  5
412
  8
MAKE2D$VISIBLE$CURVES
 10
225.6624564077748
 20
282.5043095953043
 30
0.0
  0
VERTEX
  5
413
  8
MAKE2D$VISIBLE$CURVES
 10
225.6916444842601
 20
282.5672996313531
 30
0.0
  0
VERTEX
  5
414
  8
MAKE2D$VISIBLE$CURVES
 10
225.7186287960349
 20
282.6312647419084
 30
0.0
  0
VERTEX
  5
415
  8
MAKE2D$VISIBLE$CURVES
 10
225.7433768291085
 20
282.6961278539941
 30
0.0
  0
VERTEX
  5
416
  8
MAKE2D$VISIBLE$CURVES
 10
225.7658587640245
 20
282.761810812612
 30
0.0
  0
VERTEX
  5
417
  8
MAKE2D$VISIBLE$CURVES
 10
225.7860475118032
 20
282.828234474913
 30
0.0
  0
VERTEX
  5
418
  8
MAKE2D$VISIBLE$CURVES
 10
225.8039187465775
 20
282.8953188055575
 30
0.0
  0
VERTEX
  5
419
  8
MAKE2D$VISIBLE$CURVES
 10
225.8194509349005
 20
282.9629829731521
 30
0.0
  0
VERTEX
  5
41A
  8
MAKE2D$VISIBLE$CURVES
 10
225.8326253616952
 20
283.0311454476451
 30
0.0
  0
VERTEX
  5
41B
  8
MAKE2D$VISIBLE$CURVES
 10
225.8434261528028
 20
283.0997240985637
 30
0.0
  0
VERTEX
  5
41C
  8
MAKE2D$VISIBLE$CURVES
 10
225.8518402941118
 20
283.1686362939749
 30
0.0
  0
VERTEX
  5
41D
  8
MAKE2D$VISIBLE$CURVES
 10
225.8578576472383
 20
283.2377990000507
 30
0.0
  0
VERTEX
  5
41E
  8
MAKE2D$VISIBLE$CURVES
 10
225.8614709617387
 20
283.3071288811172
 30
0.0
  0
SEQEND
  5
A85
  8
MAKE2D$VISIBLE$CURVES
  0
POLYLINE
  5
75
  8
MAKE2D$VISIBLE$CURVES
 66
     1
 10
0.0
 20
0.0
 30
0.0
 70
     1
  0
VERTEX
  5
41F
  8
MAKE2D$VISIBLE$CURVES
 10
25.72736223641192
 20
283.3765424000676
 30
0.0
  0
VERTEX
  5
420
  8
MAKE2D$VISIBLE$CURVES
 10
25.72615731429966
 20
283.4459559190179
 30
0.0
  0
VERTEX
  5
421
  8
MAKE2D$VISIBLE$CURVES
 10
25.72254399979926
 20
283.5152858000844
 30
0.0
  0
VERTEX
  5
422
  8
MAKE2D$VISIBLE$CURVES
 10
25.71652664667278
 20
283.5844485061602
 30
0.0
  0
VERTEX
  5
423
  8
MAKE2D$VISIBLE$CURVES
 10
25.70811250536377
 20
283.6533607015715
 30
0.0
  0
VERTEX
  5
424
  8
MAKE2D$VISIBLE$CURVES
 10
25.69731171425616
 20
283.72193935249
 30
0.0
  0
VERTEX
  5
425
  8
MAKE2D$VISIBLE$CURVES
 10
25.68413728746151
 20
283.7901018269829
 30
0.0
  0
VERTEX
  5
426
  8
MAKE2D$VISIBLE$CURVES
 10
25.66860509913846
 20
283.8577659945776
 30
0.0
  0
VERTEX
  5
427
  8
MAKE2D$VISIBLE$CURVES
 10
25.65073386436421
 20
283.9248503252221
 30
0.0
  0
VERTEX
  5
428
  8
MAKE2D$VISIBLE$CURVES
 10
25.63054511658544
 20
283.9912739875231
 30
0.0
  0
VERTEX
  5
429
  8
MAKE2D$VISIBLE$CURVES
 10
25.60806318166948
 20
284.0569569461411
 30
0.0
  0
VERTEX
  5
42A
  8
MAKE2D$VISIBLE$CURVES
 10
25.5833151485968
 20
284.1218200582267
 30
0.0
  0
VERTEX
  5
42B
  8
MAKE2D$VISIBLE$CURVES
 10
25.55633083682102
 20
284.185785168782
 30
0.0
  0
VERTEX
  5
42C
  8
MAKE2D$VISIBLE$CURVES
 10
25.52714276033572
 20
284.2487752048308
 30
0.0
  0
VERTEX
  5
42D
  8
MAKE2D$VISIBLE$CURVES
 10
25.49578608849794
 20
284.3107142682859
 30
0.0
  0
VERTEX
  5
42E
  8
MAKE2D$VISIBLE$CURVES
 10
25.46229860365844
 20
284.3715277274
 30
0.0
  0
VERTEX
  5
42F
  8
MAKE2D$VISIBLE$CURVES
 10
25.42672065562425
 20
284.4311423066914
 30
0.0
  0
VERTEX
  5
430
  8
MAKE2D$VISIBLE$CURVES
 10
25.38909511305434
 20
284.4894861752355
 30
0.0
  0
VERTEX
  5
431
  8
MAKE2D$VISIBLE$CURVES
 10
25.34946731179667
 20
284.5464890332147
 30
0.0
  0
VERTEX
  5
432
  8
MAKE2D$VISIBLE$CURVES
 10
25.30788500026398
 20
284.6020821966252
 30
0.0
  0
VERTEX
  5
433
  8
MAKE2D$VISIBLE$CURVES
 10
25.26439828190365
 20
284.6561986800349
 30
0.0
  0
VERTEX
  5
434
  8
MAKE2D$VISIBLE$CURVES
 10
25.21905955482458
 20
284.7087732772962
 30
0.0
  0
VERTEX
  5
435
  8
MAKE2D$VISIBLE$CURVES
 10
25.17192344866095
 20
284.7597426401146
 30
0.0
  0
VERTEX
  5
436
  8
MAKE2D$VISIBLE$CURVES
 10
25.12304675874935
 20
284.8090453543776
 30
0.0
  0
VERTEX
  5
437
  8
MAKE2D$VISIBLE$CURVES
 10
25.07248837769572
 20
284.8566220141547
 30
0.0
  0
VERTEX
  5
438
  8
MAKE2D$VISIBLE$CURVES
 10
25.02030922440923
 20
284.9024152932762
 30
0.0
  0
VERTEX
  5
439
  8
MAKE2D$VISIBLE$CURVES
 10
24.96657217070702
 20
284.9463700144079
 30
0.0
  0
VERTEX
  5
43A
  8
MAKE2D$VISIBLE$CURVES
 10
24.91134196555237
 20
284.988433215534
 30
0.0
  0
VERTEX
  5
43B
  8
MAKE2D$VISIBLE$CURVES
 10
24.85468515704093
 20
285.0285542137734
 30
0.0
  0
VERTEX
  5
43C
  8
MAKE2D$VISIBLE$CURVES
 10
24.7966700122152
 20
285.0666846664483
 30
0.0
  0
VERTEX
  5
43D
  8
MAKE2D$VISIBLE$CURVES
 10
24.73736643480521
 20
285.102778629333
 30
0.0
  0
VERTEX
  5
43E
  8
MAKE2D$VISIBLE$CURVES
 10
24.67684588100207
 20
285.1367926120134
 30
0.0
  0
VERTEX
  5
43F
  8
MAKE2D$VISIBLE$CURVES
 10
24.61518127336063
 20
285.1686856302898
 30
0.0
  0
VERTEX
  5
440
  8
MAKE2D$VISIBLE$CURVES
 10
24.55244691292961
 20
285.1984192555591
 30
0.0
  0
VERTEX
  5
441
  8
MAKE2D$VISIBLE$CURVES
 10
24.48871838972724
 20
285.2259576611189
 30
0.0
  0
VERTEX
  5
442
  8
MAKE2D$VISIBLE$CURVES
 10
24.42407249165996
 20
285.2512676653353
 30
0.0
  0
VERTEX
  5
443
  8
MAKE2D$VISIBLE$CURVES
 10
24.3585871119995
 20
285.2743187716245
 30
0.0
  0
VERTEX
  5
444
  8
MAKE2D$VISIBLE$CURVES
 10
24.29234115552941
 20
285.2950832051989
 30
0.0
  0
VERTEX
  5
445
  8
MAKE2D$VISIBLE$CURVES
 10
24.22541444346558
 20
285.3135359465332
 30
0.0
  0
VERTEX
  5
446
  8
MAKE2D$VISIBLE$CURVES
 10
24.15788761728442
 20
285.3296547615114
 30
0.0
  0
VERTEX
  5
447
  8
MAKE2D$VISIBLE$CURVES
 10
24.08984204155246
 20
285.343420228217
 30
0.0
  0
VERTEX
  5
448
  8
MAKE2D$VISIBLE$CURVES
 10
24.02135970588739
 20
285.3548157603346
 30
0.0
  0
VERTEX
  5
449
  8
MAKE2D$VISIBLE$CURVES
 10
23.95252312617055
 20
285.3638276271359
 30
0.0
  0
VERTEX
  5
44A
  8
MAKE2D$VISIBLE$CURVES
 10
23.88341524511821
 20
285.3704449700228
 30
0.0
  0
VERTEX
  5
44B
  8
MAKE2D$VISIBLE$CURVES
 10
23.81411933234546
 20
285.374659815613
 30
0.0
  0
VERTEX
  5
44C
  8
MAKE2D$VISIBLE$CURVES
 10
23.74471888402974
 20
285.3764670853456
 30
0.0
  0
VERTEX
  5
44D
  8
MAKE2D$VISIBLE$CURVES
 10
23.67529752230445
 20
285.3758646016014
 30
0.0
  0
VERTEX
  5
44E
  8
MAKE2D$VISIBLE$CURVES
 10
23.60593889450598
 20
285.3728530903263
 30
0.0
  0
VERTEX
  5
44F
  8
MAKE2D$VISIBLE$CURVES
 10
23.53672657237627
 20
285.3674361801569
 30
0.0
  0
VERTEX
  5
450
  8
MAKE2D$VISIBLE$CURVES
 10
23.46774395137351
 20
285.3596203980481
 30
0.0
  0
VERTEX
  5
451
  8
MAKE2D$VISIBLE$CURVES
 10
23.39907415018303
 20
285.3494151614086
 30
0.0
  0
VERTEX
  5
452
  8
MAKE2D$VISIBLE$CURVES
 10
23.33079991056735
 20
285.3368327667534
 30
0.0
  0
VERTEX
  5
453
  8
MAKE2D$VISIBLE$CURVES
 10
23.26300349766649
 20
285.3218883748885
 30
0.0
  0
VERTEX
  5
454
  8
MAKE2D$VISIBLE$CURVES
 10
23.19576660087938
 20
285.3045999926419
 30
0.0
  0
VERTEX
  5
455
  8
MAKE2D$VISIBLE$CURVES
 10
23.12917023542747
 20
285.2849884511675
 30
0.0
  0
VERTEX
  5
456
  8
MAKE2D$VISIBLE$CURVES
 10
23.06329464474499
 20
285.2630773808455
 30
0.0
  0
VERTEX
  5
457
  8
MAKE2D$VISIBLE$CURVES
 10
22.99821920378878
 20
285.238893182809
 30
0.0
  0
VERTEX
  5
458
  8
MAKE2D$VISIBLE$CURVES
 10
22.93402232339491
 20
285.2124649971331
 30
0.0
  0
VERTEX
  5
459
  8
MAKE2D$VISIBLE$CURVES
 10
22.87078135580492
 20
285.1838246677229
 30
0.0
  0
VERTEX
  5
45A
  8
MAKE2D$VISIBLE$CURVES
 10
22.80857250146079
 20
285.1530067039446
 30
0.0
  0
VERTEX
  5
45B
  8
MAKE2D$VISIBLE$CURVES
 10
22.74747071718417
 20
285.1200482390444
 30
0.0
  0
VERTEX
  5
45C
  8
MAKE2D$VISIBLE$CURVES
 10
22.68754962586632
 20
285.0849889854053
 30
0.0
  0
VERTEX
  5
45D
  8
MAKE2D$VISIBLE$CURVES
 10
22.62888142775779
 20
285.0478711866975
 30
0.0
  0
VERTEX
  5
45E
  8
MAKE2D$VISIBLE$CURVES
 10
22.57153681346341
 20
285.0087395669772
 30
0.0
  0
VERTEX
  5
45F
  8
MAKE2D$VISIBLE$CURVES
 10
22.51558487878179
 20
284.9676412767984
 30
0.0
  0
VERTEX
  5
460
  8
MAKE2D$VISIBLE$CURVES
 10
22.46109304143198
 20
284.9246258363997
 30
0.0
  0
VERTEX
  5
461
  8
MAKE2D$VISIBLE$CURVES
 10
22.40812695983647
 20
284.8797450760364
 30
0.0
  0
VERTEX
  5
462
  8
MAKE2D$VISIBLE$CURVES
 10
22.35675045399699
 20
284.8330530735292
 30
0.0
  0
VERTEX
  5
463
  8
MAKE2D$VISIBLE$CURVES
 10
22.30702542860314
 20
284.7846060891042
 30
0.0
  0
VERTEX
  5
464
  8
MAKE2D$VISIBLE$CURVES
 10
22.25901179843555
 20
284.7344624976044
 30
0.0
  0
VERTEX
  5
465
  8
MAKE2D$VISIBLE$CURVES
 10
22.21276741617936
 20
284.6826827181519
 30
0.0
  0
VERTEX
  5
466
  8
MAKE2D$VISIBLE$CURVES
 10
22.16834800271414
 20
284.6293291413481
 30
0.0
  0
VERTEX
  5
467
  8
MAKE2D$VISIBLE$CURVES
 10
22.12580707997228
 20
284.5744660540973
 30
0.0
  0
VERTEX
  5
468
  8
MAKE2D$VISIBLE$CURVES
 10
22.08519590645398
 20
284.5181595621465
 30
0.0
  0
VERTEX
  5
469
  8
MAKE2D$VISIBLE$CURVES
 10
22.04656341545893
 20
284.460477510433
 30
0.0
  0
VERTEX
  5
46A
  8
MAKE2D$VISIBLE$CURVES
 10
22.00995615612925
 20
284.4014894013364
 30
0.0
  0
VERTEX
  5
46B
  8
MAKE2D$VISIBLE$CURVES
 10
21.9754182373627
 20
284.3412663109339
 30
0.0
  0
VERTEX
  5
46C
  8
MAKE2D$VISIBLE$CURVES
 10
21.94299127466098
 20
284.2798808033586
 30
0.0
  0
VERTEX
  5
46D
  8
MAKE2D$VISIBLE$CURVES
 10
21.91271433998742
 20
284.2174068433659
 30
0.0
  0
VERTEX
  5
46E
  8
MAKE2D$VISIBLE$CURVES
 10
21.88462391469153
 20
284.1539197072119
 30
0.0
  0
VERTEX
  5
46F
  8
MAKE2D$VISIBLE$CURVES
 10
21.8587538455468
 20
284.0894958919507
 30
0.0
  0
VERTEX
  5
470
  8
MAKE2D$VISIBLE$CURVES
 10
21.83513530397164
 20
284.0242130232618
 30
0.0
  0
VERTEX
  5
471
  8
MAKE2D$VISIBLE$CURVES
 10
21.81379674847
 20
283.9581497619173
 30
0.0
  0
VERTEX
  5
472
  8
MAKE2D$VISIBLE$CURVES
 10
21.79476389033795
 20
283.8913857090018
 30
0.0
  0
VERTEX
  5
473
  8
MAKE2D$VISIBLE$CURVES
 10
21.77805966268903
 20
283.8240013099987
 30
0.0
  0
VERTEX
  5
474
  8
MAKE2D$VISIBLE$CURVES
 10
21.76370419281471
 20
283.7560777578607
 30
0.0
  0
VERTEX
  5
475
  8
MAKE2D$VISIBLE$CURVES
 10
21.75171477793816
 20
283.6876968951774
 30
0.0
  0
VERTEX
  5
476
  8
MAKE2D$VISIBLE$CURVES
 10
21.74210586437135
 20
283.6189411155626
 30
0.0
  0
VERTEX
  5
477
  8
MAKE2D$VISIBLE$CURVES
 10
21.73488903010644
 20
283.5498932643755
 30
0.0
  0
VERTEX
  5
478
  8
MAKE2D$VISIBLE$CURVES
 10
21.73007297086593
 20
283.4806365388987
 30
0.0
  0
VERTEX
  5
479
  8
MAKE2D$VISIBLE$CURVES
 10
21.72766348962801
 20
283.4112543880922
 30
0.0
  0
VERTEX
  5
47A
  8
MAKE2D$VISIBLE$CURVES
 10
21.72766348962801
 20
283.3418304120437
 30
0.0
  0
VERTEX
  5
47B
  8
MAKE2D$VISIBLE$CURVES
 10
21.73007297086593
 20
283.2724482612374
 30
0.0
  0
VERTEX
  5
47C
  8
MAKE2D$VISIBLE$CURVES
 10
21.73488903010644
 20
283.2031915357606
 30
0.0
  0
VERTEX
  5
47D
  8
MAKE2D$VISIBLE$CURVES
 10
21.74210586437135
 20
283.1341436845734
 30
0.0
  0
VERTEX
  5
47E
  8
MAKE2D$VISIBLE$CURVES
 10
21.75171477793816
 20
283.0653879049586
 30
0.0
  0
VERTEX
  5
47F
  8
MAKE2D$VISIBLE$CURVES
 10
21.76370419281471
 20
282.9970070422754
 30
0.0
  0
VERTEX
  5
480
  8
MAKE2D$VISIBLE$CURVES
 10
21.77805966268903
 20
282.9290834901373
 30
0.0
  0
VERTEX
  5
481
  8
MAKE2D$VISIBLE$CURVES
 10
21.79476389033795
 20
282.8616990911343
 30
0.0
  0
VERTEX
  5
482
  8
MAKE2D$VISIBLE$CURVES
 10
21.81379674847
 20
282.7949350382187
 30
0.0
  0
VERTEX
  5
483
  8
MAKE2D$VISIBLE$CURVES
 10
21.83513530397164
 20
282.7288717768742
 30
0.0
  0
VERTEX
  5
484
  8
MAKE2D$VISIBLE$CURVES
 10
21.8587538455468
 20
282.6635889081853
 30
0.0
  0
VERTEX
  5
485
  8
MAKE2D$VISIBLE$CURVES
 10
21.88462391469153
 20
282.5991650929241
 30
0.0
  0
VERTEX
  5
486
  8
MAKE2D$VISIBLE$CURVES
 10
21.91271433998742
 20
282.5356779567701
 30
0.0
  0
VERTEX
  5
487
  8
MAKE2D$VISIBLE$CURVES
 10
21.94299127466098
 20
282.4732039967774
 30
0.0
  0
VERTEX
  5
488
  8
MAKE2D$VISIBLE$CURVES
 10
21.9754182373627
 20
282.4118184892021
 30
0.0
  0
VERTEX
  5
489
  8
MAKE2D$VISIBLE$CURVES
 10
22.00995615612925
 20
282.3515953987994
 30
0.0
  0
VERTEX
  5
48A
  8
MAKE2D$VISIBLE$CURVES
 10
22.04656341545893
 20
282.2926072897029
 30
0.0
  0
VERTEX
  5
48B
  8
MAKE2D$VISIBLE$CURVES
 10
22.08519590645398
 20
282.2349252379894
 30
0.0
  0
VERTEX
  5
48C
  8
MAKE2D$VISIBLE$CURVES
 10
22.12580707997228
 20
282.1786187460387
 30
0.0
  0
VERTEX
  5
48D
  8
MAKE2D$VISIBLE$CURVES
 10
22.16834800271414
 20
282.1237556587879
 30
0.0
  0
VERTEX
  5
48E
  8
MAKE2D$VISIBLE$CURVES
 10
22.21276741617936
 20
282.070402081984
 30
0.0
  0
VERTEX
  5
48F
  8
MAKE2D$VISIBLE$CURVES
 10
22.25901179843555
 20
282.0186223025316
 30
0.0
  0
VERTEX
  5
490
  8
MAKE2D$VISIBLE$CURVES
 10
22.30702542860314
 20
281.9684787110317
 30
0.0
  0
VERTEX
  5
491
  8
MAKE2D$VISIBLE$CURVES
 10
22.35675045399699
 20
281.9200317266068
 30
0.0
  0
VERTEX
  5
492
  8
MAKE2D$VISIBLE$CURVES
 10
22.40812695983647
 20
281.8733397240995
 30
0.0
  0
VERTEX
  5
493
  8
MAKE2D$VISIBLE$CURVES
 10
22.46109304143198
 20
281.8284589637362
 30
0.0
  0
VERTEX
  5
494
  8
MAKE2D$VISIBLE$CURVES
 10
22.51558487878179
 20
281.7854435233374
 30
0.0
  0
VERTEX
  5
495
  8
MAKE2D$VISIBLE$CURVES
 10
22.57153681346341
 20
281.7443452331586
 30
0.0
  0
VERTEX
  5
496
  8
MAKE2D$VISIBLE$CURVES
 10
22.62888142775779
 20
281.7052136134383
 30
0.0
  0
VERTEX
  5
497
  8
MAKE2D$VISIBLE$CURVES
 10
22.68754962586632
 20
281.6680958147303
 30
0.0
  0
VERTEX
  5
498
  8
MAKE2D$VISIBLE$CURVES
 10
22.74747071718417
 20
281.6330365610914
 30
0.0
  0
VERTEX
  5
499
  8
MAKE2D$VISIBLE$CURVES
 10
22.80857250146079
 20
281.6000780961912
 30
0.0
  0
VERTEX
  5
49A
  8
MAKE2D$VISIBLE$CURVES
 10
22.87078135580492
 20
281.5692601324129
 30
0.0
  0
VERTEX
  5
49B
  8
MAKE2D$VISIBLE$CURVES
 10
22.93402232339491
 20
281.5406198030027
 30
0.0
  0
VERTEX
  5
49C
  8
MAKE2D$VISIBLE$CURVES
 10
22.99821920378878
 20
281.5141916173266
 30
0.0
  0
VERTEX
  5
49D
  8
MAKE2D$VISIBLE$CURVES
 10
23.06329464474499
 20
281.4900074192902
 30
0.0
  0
VERTEX
  5
49E
  8
MAKE2D$VISIBLE$CURVES
 10
23.12917023542747
 20
281.4680963489681
 30
0.0
  0
VERTEX
  5
49F
  8
MAKE2D$VISIBLE$CURVES
 10
23.19576660087938
 20
281.4484848074938
 30
0.0
  0
VERTEX
  5
4A0
  8
MAKE2D$VISIBLE$CURVES
 10
23.26300349766649
 20
281.4311964252472
 30
0.0
  0
VERTEX
  5
4A1
  8
MAKE2D$VISIBLE$CURVES
 10
23.33079991056735
 20
281.4162520333822
 30
0.0
  0
VERTEX
  5
4A2
  8
MAKE2D$VISIBLE$CURVES
 10
23.39907415018303
 20
281.4036696387271
 30
0.0
  0
VERTEX
  5
4A3
  8
MAKE2D$VISIBLE$CURVES
 10
23.46774395137351
 20
281.3934644020875
 30
0.0
  0
VERTEX
  5
4A4
  8
MAKE2D$VISIBLE$CURVES
 10
23.53672657237627
 20
281.3856486199787
 30
0.0
  0
VERTEX
  5
4A5
  8
MAKE2D$VISIBLE$CURVES
 10
23.60593889450598
 20
281.3802317098093
 30
0.0
  0
VERTEX
  5
4A6
  8
MAKE2D$VISIBLE$CURVES
 10
23.67529752230445
 20
281.3772201985342
 30
0.0
  0
VERTEX
  5
4A7
  8
MAKE2D$VISIBLE$CURVES
 10
23.74471888402974
 20
281.37661771479
 30
0.0
  0
VERTEX
  5
4A8
  8
MAKE2D$VISIBLE$CURVES
 10
23.81411933234546
 20
281.3784249845226
 30
0.0
  0
VERTEX
  5
4A9
  8
MAKE2D$VISIBLE$CURVES
 10
23.88341524511821
 20
281.3826398301127
 30
0.0
  0
VERTEX
  5
4AA
  8
MAKE2D$VISIBLE$CURVES
 10
23.95252312617055
 20
281.3892571729997
 30
0.0
  0
VERTEX
  5
4AB
  8
MAKE2D$VISIBLE$CURVES
 10
24.02135970588739
 20
281.3982690398007
 30
0.0
  0
VERTEX
  5
4AC
  8
MAKE2D$VISIBLE$CURVES
 10
24.08984204155246
 20
281.4096645719185
 30
0.0
  0
VERTEX
  5
4AD
  8
MAKE2D$VISIBLE$CURVES
 10
24.15788761728442
 20
281.423430038624
 30
0.0
  0
VERTEX
  5
4AE
  8
MAKE2D$VISIBLE$CURVES
 10
24.22541444346558
 20
281.4395488536022
 30
0.0
  0
VERTEX
  5
4AF
  8
MAKE2D$VISIBLE$CURVES
 10
24.29234115552941
 20
281.4580015949365
 30
0.0
  0
VERTEX
  5
4B0
  8
MAKE2D$VISIBLE$CURVES
 10
24.3585871119995
 20
281.4787660285108
 30
0.0
  0
VERTEX
  5
4B1
  8
MAKE2D$VISIBLE$CURVES
 10
24.42407249165996
 20
281.5018171348001
 30
0.0
  0
VERTEX
  5
4B2
  8
MAKE2D$VISIBLE$CURVES
 10
24.48871838972724
 20
281.5271271390164
 30
0.0
  0
VERTEX
  5
4B3
  8
MAKE2D$VISIBLE$CURVES
 10
24.55244691292961
 20
281.5546655445762
 30
0.0
  0
VERTEX
  5
4B4
  8
MAKE2D$VISIBLE$CURVES
 10
24.61518127336063
 20
281.5843991698456
 30
0.0
  0
VERTEX
  5
4B5
  8
MAKE2D$VISIBLE$CURVES
 10
24.67684588100207
 20
281.6162921881219
 30
0.0
  0
VERTEX
  5
4B6
  8
MAKE2D$VISIBLE$CURVES
 10
24.73736643480521
 20
281.6503061708024
 30
0.0
  0
VERTEX
  5
4B7
  8
MAKE2D$VISIBLE$CURVES
 10
24.7966700122152
 20
281.6864001336871
 30
0.0
  0
VERTEX
  5
4B8
  8
MAKE2D$VISIBLE$CURVES
 10
24.85468515704093
 20
281.7245305863619
 30
0.0
  0
VERTEX
  5
4B9
  8
MAKE2D$VISIBLE$CURVES
 10
24.91134196555237
 20
281.7646515846014
 30
0.0
  0
VERTEX
  5
4BA
  8
MAKE2D$VISIBLE$CURVES
 10
24.96657217070702
 20
281.8067147857274
 30
0.0
  0
VERTEX
  5
4BB
  8
MAKE2D$VISIBLE$CURVES
 10
25.02030922440923
 20
281.850669506859
 30
0.0
  0
VERTEX
  5
4BC
  8
MAKE2D$VISIBLE$CURVES
 10
25.07248837769572
 20
281.8964627859806
 30
0.0
  0
VERTEX
  5
4BD
  8
MAKE2D$VISIBLE$CURVES
 10
25.12304675874935
 20
281.9440394457576
 30
0.0
  0
VERTEX
  5
4BE
  8
MAKE2D$VISIBLE$CURVES
 10
25.17192344866095
 20
281.9933421600206
 30
0.0
  0
VERTEX
  5
4BF
  8
MAKE2D$VISIBLE$CURVES
 10
25.21905955482458
 20
282.044311522839
 30
0.0
  0
VERTEX
  5
4C0
  8
MAKE2D$VISIBLE$CURVES
 10
25.26439828190365
 20
282.0968861201004
 30
0.0
  0
VERTEX
  5
4C1
  8
MAKE2D$VISIBLE$CURVES
 10
25.30788500026398
 20
282.1510026035101
 30
0.0
  0
VERTEX
  5
4C2
  8
MAKE2D$VISIBLE$CURVES
 10
25.34946731179667
 20
282.2065957669205
 30
0.0
  0
VERTEX
  5
4C3
  8
MAKE2D$VISIBLE$CURVES
 10
25.38909511305434
 20
282.2635986248997
 30
0.0
  0
VERTEX
  5
4C4
  8
MAKE2D$VISIBLE$CURVES
 10
25.42672065562425
 20
282.3219424934438
 30
0.0
  0
VERTEX
  5
4C5
  8
MAKE2D$VISIBLE$CURVES
 10
25.46229860365844
 20
282.3815570727353
 30
0.0
  0
VERTEX
  5
4C6
  8
MAKE2D$VISIBLE$CURVES
 10
25.49578608849794
 20
282.4423705318493
 30
0.0
  0
VERTEX
  5
4C7
  8
MAKE2D$VISIBLE$CURVES
 10
25.52714276033572
 20
282.5043095953043
 30
0.0
  0
VERTEX
  5
4C8
  8
MAKE2D$VISIBLE$CURVES
 10
25.55633083682102
 20
282.5672996313531
 30
0.0
  0
VERTEX
  5
4C9
  8
MAKE2D$VISIBLE$CURVES
 10
25.5833151485968
 20
282.6312647419084
 30
0.0
  0
VERTEX
  5
4CA
  8
MAKE2D$VISIBLE$CURVES
 10
25.60806318166948
 20
282.6961278539941
 30
0.0
  0
VERTEX
  5
4CB
  8
MAKE2D$VISIBLE$CURVES
 10
25.63054511658544
 20
282.761810812612
 30
0.0
  0
VERTEX
  5
4CC
  8
MAKE2D$VISIBLE$CURVES
 10
25.65073386436421
 20
282.828234474913
 30
0.0
  0
VERTEX
  5
4CD
  8
MAKE2D$VISIBLE$CURVES
 10
25.66860509913846
 20
282.8953188055575
 30
0.0
  0
VERTEX
  5
4CE
  8
MAKE2D$VISIBLE$CURVES
 10
25.68413728746151
 20
282.9629829731521
 30
0.0
  0
VERTEX
  5
4CF
  8
MAKE2D$VISIBLE$CURVES
 10
25.69731171425616
 20
283.0311454476451
 30
0.0
  0
VERTEX
  5
4D0
  8
MAKE2D$VISIBLE$CURVES
 10
25.70811250536377
 20
283.0997240985637
 30
0.0
  0
VERTEX
  5
4D1
  8
MAKE2D$VISIBLE$CURVES
 10
25.71652664667278
 20
283.1686362939749
 30
0.0
  0
VERTEX
  5
4D2
  8
MAKE2D$VISIBLE$CURVES
 10
25.72254399979926
 20
283.2377990000507
 30
0.0
  0
VERTEX
  5
4D3
  8
MAKE2D$VISIBLE$CURVES
 10
25.72615731429966
 20
283.3071288811172
 30
0.0
  0
SEQEND
  5
A86
  8
MAKE2D$VISIBLE$CURVES
  0
POLYLINE
  5
76
  8
MAKE2D$VISIBLE$CURVES
 66
     1
 10
0.0
 20
0.0
 30
0.0
 70
     1
  0
VERTEX
  5
4D4
  8
MAKE2D$VISIBLE$CURVES
 10
272.7032971789783
 20
417.0324922041556
 30
0.0
  0
VERTEX
  5
4D5
  8
MAKE2D$VISIBLE$CURVES
 10
272.7045021010906
 20
417.101905723106
 30
0.0
  0
VERTEX
  5
4D6
  8
MAKE2D$VISIBLE$CURVES
 10
272.708115415591
 20
417.1712356041724
 30
0.0
  0
VERTEX
  5
4D7
  8
MAKE2D$VISIBLE$CURVES
 10
272.7141327687174
 20
417.2403983102482
 30
0.0
  0
VERTEX
  5
4D8
  8
MAKE2D$VISIBLE$CURVES
 10
272.7225469100264
 20
417.3093105056594
 30
0.0
  0
VERTEX
  5
4D9
  8
MAKE2D$VISIBLE$CURVES
 10
272.7333477011341
 20
417.377889156578
 30
0.0
  0
VERTEX
  5
4DA
  8
MAKE2D$VISIBLE$CURVES
 10
272.7465221279287
 20
417.4460516310709
 30
0.0
  0
VERTEX
  5
4DB
  8
MAKE2D$VISIBLE$CURVES
 10
272.7620543162517
 20
417.5137157986655
 30
0.0
  0
VERTEX
  5
4DC
  8
MAKE2D$VISIBLE$CURVES
 10
272.779925551026
 20
417.5808001293099
 30
0.0
  0
VERTEX
  5
4DD
  8
MAKE2D$VISIBLE$CURVES
 10
272.8001142988048
 20
417.6472237916109
 30
0.0
  0
VERTEX
  5
4DE
  8
MAKE2D$VISIBLE$CURVES
 10
272.8225962337207
 20
417.7129067502288
 30
0.0
  0
VERTEX
  5
4DF
  8
MAKE2D$VISIBLE$CURVES
 10
272.8473442667934
 20
417.7777698623143
 30
0.0
  0
VERTEX
  5
4E0
  8
MAKE2D$VISIBLE$CURVES
 10
272.8743285785692
 20
417.8417349728696
 30
0.0
  0
VERTEX
  5
4E1
  8
MAKE2D$VISIBLE$CURVES
 10
272.9035166550545
 20
417.9047250089184
 30
0.0
  0
VERTEX
  5
4E2
  8
MAKE2D$VISIBLE$CURVES
 10
272.9348733268914
 20
417.9666640723734
 30
0.0
  0
VERTEX
  5
4E3
  8
MAKE2D$VISIBLE$CURVES
 10
272.9683608117318
 20
418.0274775314875
 30
0.0
  0
VERTEX
  5
4E4
  8
MAKE2D$VISIBLE$CURVES
 10
273.003938759766
 20
418.0870921107789
 30
0.0
  0
VERTEX
  5
4E5
  8
MAKE2D$VISIBLE$CURVES
 10
273.0415643023368
 20
418.1454359793228
 30
0.0
  0
VERTEX
  5
4E6
  8
MAKE2D$VISIBLE$CURVES
 10
273.0811921035944
 20
418.2024388373019
 30
0.0
  0
VERTEX
  5
4E7
  8
MAKE2D$VISIBLE$CURVES
 10
273.1227744151271
 20
418.2580320007124
 30
0.0
  0
VERTEX
  5
4E8
  8
MAKE2D$VISIBLE$CURVES
 10
273.1662611334875
 20
418.312148484122
 30
0.0
  0
VERTEX
  5
4E9
  8
MAKE2D$VISIBLE$CURVES
 10
273.2115998605665
 20
418.3647230813835
 30
0.0
  0
VERTEX
  5
4EA
  8
MAKE2D$VISIBLE$CURVES
 10
273.2587359667302
 20
418.4156924442019
 30
0.0
  0
VERTEX
  5
4EB
  8
MAKE2D$VISIBLE$CURVES
 10
273.3076126566409
 20
418.4649951584648
 30
0.0
  0
VERTEX
  5
4EC
  8
MAKE2D$VISIBLE$CURVES
 10
273.3581710376954
 20
418.5125718182417
 30
0.0
  0
VERTEX
  5
4ED
  8
MAKE2D$VISIBLE$CURVES
 10
273.4103501909819
 20
418.5583650973633
 30
0.0
  0
VERTEX
  5
4EE
  8
MAKE2D$VISIBLE$CURVES
 10
273.4640872446841
 20
418.6023198184948
 30
0.0
  0
VERTEX
  5
4EF
  8
MAKE2D$VISIBLE$CURVES
 10
273.5193174498388
 20
418.6443830196209
 30
0.0
  0
VERTEX
  5
4F0
  8
MAKE2D$VISIBLE$CURVES
 10
273.5759742583502
 20
418.6845040178603
 30
0.0
  0
VERTEX
  5
4F1
  8
MAKE2D$VISIBLE$CURVES
 10
273.633989403175
 20
418.722634470535
 30
0.0
  0
VERTEX
  5
4F2
  8
MAKE2D$VISIBLE$CURVES
 10
273.6932929805859
 20
418.7587284334197
 30
0.0
  0
VERTEX
  5
4F3
  8
MAKE2D$VISIBLE$CURVES
 10
273.7538135343881
 20
418.7927424161001
 30
0.0
  0
VERTEX
  5
4F4
  8
MAKE2D$VISIBLE$CURVES
 10
273.8154781420296
 20
418.8246354343765
 30
0.0
  0
VERTEX
  5
4F5
  8
MAKE2D$VISIBLE$CURVES
 10
273.8782125024606
 20
418.8543690596458
 30
0.0
  0
VERTEX
  5
4F6
  8
MAKE2D$VISIBLE$CURVES
 10
273.9419410256639
 20
418.8819074652054
 30
0.0
  0
VERTEX
  5
4F7
  8
MAKE2D$VISIBLE$CURVES
 10
274.0065869237312
 20
418.9072174694218
 30
0.0
  0
VERTEX
  5
4F8
  8
MAKE2D$VISIBLE$CURVES
 10
274.0720723033907
 20
418.930268575711
 30
0.0
  0
VERTEX
  5
4F9
  8
MAKE2D$VISIBLE$CURVES
 10
274.1383182598617
 20
418.9510330092853
 30
0.0
  0
VERTEX
  5
4FA
  8
MAKE2D$VISIBLE$CURVES
 10
274.2052449719246
 20
418.9694857506195
 30
0.0
  0
VERTEX
  5
4FB
  8
MAKE2D$VISIBLE$CURVES
 10
274.2727717981058
 20
418.9856045655978
 30
0.0
  0
VERTEX
  5
4FC
  8
MAKE2D$VISIBLE$CURVES
 10
274.3408173738378
 20
418.9993700323033
 30
0.0
  0
VERTEX
  5
4FD
  8
MAKE2D$VISIBLE$CURVES
 10
274.4092997095028
 20
419.0107655644209
 30
0.0
  0
VERTEX
  5
4FE
  8
MAKE2D$VISIBLE$CURVES
 10
274.4781362892197
 20
419.0197774312221
 30
0.0
  0
VERTEX
  5
4FF
  8
MAKE2D$VISIBLE$CURVES
 10
274.547244170272
 20
419.0263947741091
 30
0.0
  0
VERTEX
  5
500
  8
MAKE2D$VISIBLE$CURVES
 10
274.6165400830448
 20
419.0306096196991
 30
0.0
  0
VERTEX
  5
501
  8
MAKE2D$VISIBLE$CURVES
 10
274.6859405313605
 20
419.0324168894317
 30
0.0
  0
VERTEX
  5
502
  8
MAKE2D$VISIBLE$CURVES
 10
274.7553618930849
 20
419.0318144056874
 30
0.0
  0
VERTEX
  5
503
  8
MAKE2D$VISIBLE$CURVES
 10
274.8247205208833
 20
419.0288028944123
 30
0.0
  0
VERTEX
  5
504
  8
MAKE2D$VISIBLE$CURVES
 10
274.8939328430139
 20
419.0233859842428
 30
0.0
  0
VERTEX
  5
505
  8
MAKE2D$VISIBLE$CURVES
 10
274.9629154640167
 20
419.015570202134
 30
0.0
  0
VERTEX
  5
506
  8
MAKE2D$VISIBLE$CURVES
 10
275.0315852652072
 20
419.0053649654944
 30
0.0
  0
VERTEX
  5
507
  8
MAKE2D$VISIBLE$CURVES
 10
275.0998595048229
 20
418.9927825708392
 30
0.0
  0
VERTEX
  5
508
  8
MAKE2D$VISIBLE$CURVES
 10
275.1676559177228
 20
418.9778381789743
 30
0.0
  0
VERTEX
  5
509
  8
MAKE2D$VISIBLE$CURVES
 10
275.2348928145108
 20
418.9605497967277
 30
0.0
  0
VERTEX
  5
50A
  8
MAKE2D$VISIBLE$CURVES
 10
275.3014891799627
 20
418.9409382552533
 30
0.0
  0
VERTEX
  5
50B
  8
MAKE2D$VISIBLE$CURVES
 10
275.3673647706443
 20
418.9190271849313
 30
0.0
  0
VERTEX
  5
50C
  8
MAKE2D$VISIBLE$CURVES
 10
275.4324402116014
 20
418.8948429868947
 30
0.0
  0
VERTEX
  5
50D
  8
MAKE2D$VISIBLE$CURVES
 10
275.4966370919944
 20
418.8684148012188
 30
0.0
  0
VERTEX
  5
50E
  8
MAKE2D$VISIBLE$CURVES
 10
275.5598780595844
 20
418.8397744718085
 30
0.0
  0
VERTEX
  5
50F
  8
MAKE2D$VISIBLE$CURVES
 10
275.6220869139294
 20
418.8089565080301
 30
0.0
  0
VERTEX
  5
510
  8
MAKE2D$VISIBLE$CURVES
 10
275.683188698206
 20
418.77599804313
 30
0.0
  0
VERTEX
  5
511
  8
MAKE2D$VISIBLE$CURVES
 10
275.743109789523
 20
418.7409387894909
 30
0.0
  0
VERTEX
  5
512
  8
MAKE2D$VISIBLE$CURVES
 10
275.8017779876324
 20
418.7038209907831
 30
0.0
  0
VERTEX
  5
513
  8
MAKE2D$VISIBLE$CURVES
 10
275.8591226019259
 20
418.6646893710627
 30
0.0
  0
VERTEX
  5
514
  8
MAKE2D$VISIBLE$CURVES
 10
275.9150745366084
 20
418.623591080884
 30
0.0
  0
VERTEX
  5
515
  8
MAKE2D$VISIBLE$CURVES
 10
275.9695663739573
 20
418.5805756404852
 30
0.0
  0
VERTEX
  5
516
  8
MAKE2D$VISIBLE$CURVES
 10
276.0225324555528
 20
418.535694880122
 30
0.0
  0
VERTEX
  5
517
  8
MAKE2D$VISIBLE$CURVES
 10
276.0739089613923
 20
418.4890028776147
 30
0.0
  0
VERTEX
  5
518
  8
MAKE2D$VISIBLE$CURVES
 10
276.1236339867871
 20
418.4405558931897
 30
0.0
  0
VERTEX
  5
519
  8
MAKE2D$VISIBLE$CURVES
 10
276.1716476169547
 20
418.3904123016899
 30
0.0
  0
VERTEX
  5
51A
  8
MAKE2D$VISIBLE$CURVES
 10
276.2178919992099
 20
418.3386325222374
 30
0.0
  0
VERTEX
  5
51B
  8
MAKE2D$VISIBLE$CURVES
 10
276.2623114126752
 20
418.2852789454335
 30
0.0
  0
VERTEX
  5
51C
  8
MAKE2D$VISIBLE$CURVES
 10
276.304852335417
 20
418.2304158581828
 30
0.0
  0
VERTEX
  5
51D
  8
MAKE2D$VISIBLE$CURVES
 10
276.3454635089353
 20
418.1741093662319
 30
0.0
  0
VERTEX
  5
51E
  8
MAKE2D$VISIBLE$CURVES
 10
276.3840959999304
 20
418.1164273145185
 30
0.0
  0
VERTEX
  5
51F
  8
MAKE2D$VISIBLE$CURVES
 10
276.4207032592601
 20
418.057439205422
 30
0.0
  0
VERTEX
  5
520
  8
MAKE2D$VISIBLE$CURVES
 10
276.4552411780257
 20
417.9972161150194
 30
0.0
  0
VERTEX
  5
521
  8
MAKE2D$VISIBLE$CURVES
 10
276.4876681407274
 20
417.9358306074441
 30
0.0
  0
VERTEX
  5
522
  8
MAKE2D$VISIBLE$CURVES
 10
276.517945075401
 20
417.8733566474515
 30
0.0
  0
VERTEX
  5
523
  8
MAKE2D$VISIBLE$CURVES
 10
276.5460355006969
 20
417.8098695112974
 30
0.0
  0
VERTEX
  5
524
  8
MAKE2D$VISIBLE$CURVES
 10
276.5719055698416
 20
417.7454456960363
 30
0.0
  0
VERTEX
  5
525
  8
MAKE2D$VISIBLE$CURVES
 10
276.5955241114168
 20
417.6801628273473
 30
0.0
  0
VERTEX
  5
526
  8
MAKE2D$VISIBLE$CURVES
 10
276.6168626669184
 20
417.6140995660028
 30
0.0
  0
VERTEX
  5
527
  8
MAKE2D$VISIBLE$CURVES
 10
276.6358955250504
 20
417.5473355130874
 30
0.0
  0
VERTEX
  5
528
  8
MAKE2D$VISIBLE$CURVES
 10
276.6525997526994
 20
417.4799511140844
 30
0.0
  0
VERTEX
  5
529
  8
MAKE2D$VISIBLE$CURVES
 10
276.6669552225737
 20
417.4120275619462
 30
0.0
  0
VERTEX
  5
52A
  8
MAKE2D$VISIBLE$CURVES
 10
276.6789446374493
 20
417.343646699263
 30
0.0
  0
VERTEX
  5
52B
  8
MAKE2D$VISIBLE$CURVES
 10
276.688553551017
 20
417.2748909196483
 30
0.0
  0
VERTEX
  5
52C
  8
MAKE2D$VISIBLE$CURVES
 10
276.6957703852819
 20
417.2058430684612
 30
0.0
  0
VERTEX
  5
52D
  8
MAKE2D$VISIBLE$CURVES
 10
276.7005864445215
 20
417.1365863429845
 30
0.0
  0
VERTEX
  5
52E
  8
MAKE2D$VISIBLE$CURVES
 10
276.7029959257604
 20
417.0672041921781
 30
0.0
  0
VERTEX
  5
52F
  8
MAKE2D$VISIBLE$CURVES
 10
276.7029959257604
 20
416.9977802161296
 30
0.0
  0
VERTEX
  5
530
  8
MAKE2D$VISIBLE$CURVES
 10
276.7005864445215
 20
416.9283980653232
 30
0.0
  0
VERTEX
  5
531
  8
MAKE2D$VISIBLE$CURVES
 10
276.6957703852819
 20
416.8591413398464
 30
0.0
  0
VERTEX
  5
532
  8
MAKE2D$VISIBLE$CURVES
 10
276.688553551017
 20
416.7900934886594
 30
0.0
  0
VERTEX
  5
533
  8
MAKE2D$VISIBLE$CURVES
 10
276.6789446374493
 20
416.7213377090446
 30
0.0
  0
VERTEX
  5
534
  8
MAKE2D$VISIBLE$CURVES
 10
276.6669552225737
 20
416.6529568463614
 30
0.0
  0
VERTEX
  5
535
  8
MAKE2D$VISIBLE$CURVES
 10
276.6525997526994
 20
416.5850332942233
 30
0.0
  0
VERTEX
  5
536
  8
MAKE2D$VISIBLE$CURVES
 10
276.6358955250504
 20
416.5176488952202
 30
0.0
  0
VERTEX
  5
537
  8
MAKE2D$VISIBLE$CURVES
 10
276.6168626669184
 20
416.4508848423048
 30
0.0
  0
VERTEX
  5
538
  8
MAKE2D$VISIBLE$CURVES
 10
276.5955241114168
 20
416.3848215809604
 30
0.0
  0
VERTEX
  5
539
  8
MAKE2D$VISIBLE$CURVES
 10
276.5719055698416
 20
416.3195387122716
 30
0.0
  0
VERTEX
  5
53A
  8
MAKE2D$VISIBLE$CURVES
 10
276.5460355006969
 20
416.2551148970104
 30
0.0
  0
VERTEX
  5
53B
  8
MAKE2D$VISIBLE$CURVES
 10
276.517945075401
 20
416.1916277608563
 30
0.0
  0
VERTEX
  5
53C
  8
MAKE2D$VISIBLE$CURVES
 10
276.4876681407274
 20
416.1291538008638
 30
0.0
  0
VERTEX
  5
53D
  8
MAKE2D$VISIBLE$CURVES
 10
276.4552411780257
 20
416.0677682932885
 30
0.0
  0
VERTEX
  5
53E
  8
MAKE2D$VISIBLE$CURVES
 10
276.4207032592573
 20
416.0075452028859
 30
0.0
  0
VERTEX
  5
53F
  8
MAKE2D$VISIBLE$CURVES
 10
276.3840959999285
 20
415.9485570937894
 30
0.0
  0
VERTEX
  5
540
  8
MAKE2D$VISIBLE$CURVES
 10
276.3454635089335
 20
415.8908750420759
 30
0.0
  0
VERTEX
  5
541
  8
MAKE2D$VISIBLE$CURVES
 10
276.3048523354143
 20
415.8345685501253
 30
0.0
  0
VERTEX
  5
542
  8
MAKE2D$VISIBLE$CURVES
 10
276.2623114126733
 20
415.7797054628746
 30
0.0
  0
VERTEX
  5
543
  8
MAKE2D$VISIBLE$CURVES
 10
276.2178919992081
 20
415.7263518860706
 30
0.0
  0
VERTEX
  5
544
  8
MAKE2D$VISIBLE$CURVES
 10
276.1716476169528
 20
415.6745721066182
 30
0.0
  0
VERTEX
  5
545
  8
MAKE2D$VISIBLE$CURVES
 10
276.1236339867862
 20
415.6244285151184
 30
0.0
  0
VERTEX
  5
546
  8
MAKE2D$VISIBLE$CURVES
 10
276.0739089613905
 20
415.5759815306936
 30
0.0
  0
VERTEX
  5
547
  8
MAKE2D$VISIBLE$CURVES
 10
276.022532455551
 20
415.5292895281863
 30
0.0
  0
VERTEX
  5
548
  8
MAKE2D$VISIBLE$CURVES
 10
275.9695663739555
 20
415.4844087678231
 30
0.0
  0
VERTEX
  5
549
  8
MAKE2D$VISIBLE$CURVES
 10
275.9150745366066
 20
415.4413933274244
 30
0.0
  0
VERTEX
  5
54A
  8
MAKE2D$VISIBLE$CURVES
 10
275.8591226019241
 20
415.4002950372456
 30
0.0
  0
VERTEX
  5
54B
  8
MAKE2D$VISIBLE$CURVES
 10
275.8017779876306
 20
415.3611634175255
 30
0.0
  0
VERTEX
  5
54C
  8
MAKE2D$VISIBLE$CURVES
 10
275.7431097895212
 20
415.3240456188176
 30
0.0
  0
VERTEX
  5
54D
  8
MAKE2D$VISIBLE$CURVES
 10
275.6831886982033
 20
415.2889863651786
 30
0.0
  0
VERTEX
  5
54E
  8
MAKE2D$VISIBLE$CURVES
 10
275.6220869139276
 20
415.2560279002784
 30
0.0
  0
VERTEX
  5
54F
  8
MAKE2D$VISIBLE$CURVES
 10
275.5598780595826
 20
415.2252099365002
 30
0.0
  0
VERTEX
  5
550
  8
MAKE2D$VISIBLE$CURVES
 10
275.4966370919926
 20
415.19656960709
 30
0.0
  0
VERTEX
  5
551
  8
MAKE2D$VISIBLE$CURVES
 10
275.4324402115996
 20
415.170141421414
 30
0.0
  0
VERTEX
  5
552
  8
MAKE2D$VISIBLE$CURVES
 10
275.3673647706425
 20
415.1459572233775
 30
0.0
  0
VERTEX
  5
553
  8
MAKE2D$VISIBLE$CURVES
 10
275.3014891799609
 20
415.1240461530556
 30
0.0
  0
VERTEX
  5
554
  8
MAKE2D$VISIBLE$CURVES
 10
275.234892814509
 20
415.1044346115813
 30
0.0
  0
VERTEX
  5
555
  8
MAKE2D$VISIBLE$CURVES
 10
275.167655917721
 20
415.0871462293347
 30
0.0
  0
VERTEX
  5
556
  8
MAKE2D$VISIBLE$CURVES
 10
275.099859504821
 20
415.0722018374698
 30
0.0
  0
VERTEX
  5
557
  8
MAKE2D$VISIBLE$CURVES
 10
275.0315852652054
 20
415.0596194428148
 30
0.0
  0
VERTEX
  5
558
  8
MAKE2D$VISIBLE$CURVES
 10
274.9629154640149
 20
415.0494142061752
 30
0.0
  0
VERTEX
  5
559
  8
MAKE2D$VISIBLE$CURVES
 10
274.8939328430121
 20
415.0415984240664
 30
0.0
  0
VERTEX
  5
55A
  8
MAKE2D$VISIBLE$CURVES
 10
274.8247205208824
 20
415.0361815138971
 30
0.0
  0
VERTEX
  5
55B
  8
MAKE2D$VISIBLE$CURVES
 10
274.755361893083
 20
415.0331700026221
 30
0.0
  0
VERTEX
  5
55C
  8
MAKE2D$VISIBLE$CURVES
 10
274.6859405313587
 20
415.0325675188778
 30
0.0
  0
VERTEX
  5
55D
  8
MAKE2D$VISIBLE$CURVES
 10
274.6165400830429
 20
415.0343747886104
 30
0.0
  0
VERTEX
  5
55E
  8
MAKE2D$VISIBLE$CURVES
 10
274.5472441702702
 20
415.0385896342006
 30
0.0
  0
VERTEX
  5
55F
  8
MAKE2D$VISIBLE$CURVES
 10
274.4781362892178
 20
415.0452069770876
 30
0.0
  0
VERTEX
  5
560
  8
MAKE2D$VISIBLE$CURVES
 10
274.409299709501
 20
415.0542188438888
 30
0.0
  0
VERTEX
  5
561
  8
MAKE2D$VISIBLE$CURVES
 10
274.3408173738359
 20
415.0656143760064
 30
0.0
  0
VERTEX
  5
562
  8
MAKE2D$VISIBLE$CURVES
 10
274.272771798104
 20
415.0793798427121
 30
0.0
  0
VERTEX
  5
563
  8
MAKE2D$VISIBLE$CURVES
 10
274.2052449719228
 20
415.0954986576904
 30
0.0
  0
VERTEX
  5
564
  8
MAKE2D$VISIBLE$CURVES
 10
274.1383182598599
 20
415.1139513990246
 30
0.0
  0
VERTEX
  5
565
  8
MAKE2D$VISIBLE$CURVES
 10
274.0720723033889
 20
415.1347158325992
 30
0.0
  0
VERTEX
  5
566
  8
MAKE2D$VISIBLE$CURVES
 10
274.0065869237293
 20
415.1577669388883
 30
0.0
  0
VERTEX
  5
567
  8
MAKE2D$VISIBLE$CURVES
 10
273.9419410256621
 20
415.1830769431047
 30
0.0
  0
VERTEX
  5
568
  8
MAKE2D$VISIBLE$CURVES
 10
273.8782125024588
 20
415.2106153486644
 30
0.0
  0
VERTEX
  5
569
  8
MAKE2D$VISIBLE$CURVES
 10
273.8154781420278
 20
415.2403489739339
 30
0.0
  0
VERTEX
  5
56A
  8
MAKE2D$VISIBLE$CURVES
 10
273.7538135343863
 20
415.2722419922102
 30
0.0
  0
VERTEX
  5
56B
  8
MAKE2D$VISIBLE$CURVES
 10
273.6932929805841
 20
415.3062559748907
 30
0.0
  0
VERTEX
  5
56C
  8
MAKE2D$VISIBLE$CURVES
 10
273.6339894031732
 20
415.3423499377754
 30
0.0
  0
VERTEX
  5
56D
  8
MAKE2D$VISIBLE$CURVES
 10
273.5759742583475
 20
415.3804803904503
 30
0.0
  0
VERTEX
  5
56E
  8
MAKE2D$VISIBLE$CURVES
 10
273.5193174498369
 20
415.4206013886897
 30
0.0
  0
VERTEX
  5
56F
  8
MAKE2D$VISIBLE$CURVES
 10
273.4640872446832
 20
415.4626645898158
 30
0.0
  0
VERTEX
  5
570
  8
MAKE2D$VISIBLE$CURVES
 10
273.4103501909801
 20
415.5066193109473
 30
0.0
  0
VERTEX
  5
571
  8
MAKE2D$VISIBLE$CURVES
 10
273.3581710376936
 20
415.5524125900689
 30
0.0
  0
VERTEX
  5
572
  8
MAKE2D$VISIBLE$CURVES
 10
273.307612656639
 20
415.599989249846
 30
0.0
  0
VERTEX
  5
573
  8
MAKE2D$VISIBLE$CURVES
 10
273.2587359667284
 20
415.649291964109
 30
0.0
  0
VERTEX
  5
574
  8
MAKE2D$VISIBLE$CURVES
 10
273.2115998605647
 20
415.7002613269273
 30
0.0
  0
VERTEX
  5
575
  8
MAKE2D$VISIBLE$CURVES
 10
273.1662611334856
 20
415.7528359241888
 30
0.0
  0
VERTEX
  5
576
  8
MAKE2D$VISIBLE$CURVES
 10
273.1227744151253
 20
415.8069524075984
 30
0.0
  0
VERTEX
  5
577
  8
MAKE2D$VISIBLE$CURVES
 10
273.0811921035926
 20
415.8625455710089
 30
0.0
  0
VERTEX
  5
578
  8
MAKE2D$VISIBLE$CURVES
 10
273.041564302335
 20
415.9195484289882
 30
0.0
  0
VERTEX
  5
579
  8
MAKE2D$VISIBLE$CURVES
 10
273.0039387597641
 20
415.9778922975322
 30
0.0
  0
VERTEX
  5
57A
  8
MAKE2D$VISIBLE$CURVES
 10
272.9683608117318
 20
416.0375068768236
 30
0.0
  0
VERTEX
  5
57B
  8
MAKE2D$VISIBLE$CURVES
 10
272.9348733268914
 20
416.0983203359377
 30
0.0
  0
VERTEX
  5
57C
  8
MAKE2D$VISIBLE$CURVES
 10
272.9035166550545
 20
416.1602593993926
 30
0.0
  0
VERTEX
  5
57D
  8
MAKE2D$VISIBLE$CURVES
 10
272.8743285785692
 20
416.2232494354415
 30
0.0
  0
VERTEX
  5
57E
  8
MAKE2D$VISIBLE$CURVES
 10
272.8473442667934
 20
416.2872145459967
 30
0.0
  0
VERTEX
  5
57F
  8
MAKE2D$VISIBLE$CURVES
 10
272.8225962337207
 20
416.3520776580825
 30
0.0
  0
VERTEX
  5
580
  8
MAKE2D$VISIBLE$CURVES
 10
272.8001142988048
 20
416.4177606167004
 30
0.0
  0
VERTEX
  5
581
  8
MAKE2D$VISIBLE$CURVES
 10
272.779925551026
 20
416.4841842790013
 30
0.0
  0
VERTEX
  5
582
  8
MAKE2D$VISIBLE$CURVES
 10
272.7620543162517
 20
416.5512686096458
 30
0.0
  0
VERTEX
  5
583
  8
MAKE2D$VISIBLE$CURVES
 10
272.7465221279287
 20
416.6189327772403
 30
0.0
  0
VERTEX
  5
584
  8
MAKE2D$VISIBLE$CURVES
 10
272.7333477011341
 20
416.6870952517333
 30
0.0
  0
VERTEX
  5
585
  8
MAKE2D$VISIBLE$CURVES
 10
272.7225469100264
 20
416.7556739026518
 30
0.0
  0
VERTEX
  5
586
  8
MAKE2D$VISIBLE$CURVES
 10
272.7141327687174
 20
416.8245860980631
 30
0.0
  0
VERTEX
  5
587
  8
MAKE2D$VISIBLE$CURVES
 10
272.708115415591
 20
416.8937488041389
 30
0.0
  0
VERTEX
  5
588
  8
MAKE2D$VISIBLE$CURVES
 10
272.7045021010906
 20
416.9630786852053
 30
0.0
  0
SEQEND
  5
A87
  8
MAKE2D$VISIBLE$CURVES
  0
POLYLINE
  5
77
  8
MAKE2D$VISIBLE$CURVES
 66
     1
 10
0.0
 20
0.0
 30
0.0
 70
     1
  0
VERTEX
  5
589
  8
MAKE2D$VISIBLE$CURVES
 10
472.8386108264164
 20
417.0324922041547
 30
0.0
  0
VERTEX
  5
58A
  8
MAKE2D$VISIBLE$CURVES
 10
472.8398157485287
 20
417.1019057231051
 30
0.0
  0
VERTEX
  5
58B
  8
MAKE2D$VISIBLE$CURVES
 10
472.8434290630291
 20
417.1712356041715
 30
0.0
  0
VERTEX
  5
58C
  8
MAKE2D$VISIBLE$CURVES
 10
472.8494464161556
 20
417.2403983102474
 30
0.0
  0
VERTEX
  5
58D
  8
MAKE2D$VISIBLE$CURVES
 10
472.8578605574646
 20
417.3093105056586
 30
0.0
  0
VERTEX
  5
58E
  8
MAKE2D$VISIBLE$CURVES
 10
472.8686613485722
 20
417.3778891565772
 30
0.0
  0
VERTEX
  5
58F
  8
MAKE2D$VISIBLE$CURVES
 10
472.8818357753668
 20
417.4460516310701
 30
0.0
  0
VERTEX
  5
590
  8
MAKE2D$VISIBLE$CURVES
 10
472.8973679636899
 20
417.5137157986648
 30
0.0
  0
VERTEX
  5
591
  8
MAKE2D$VISIBLE$CURVES
 10
472.9152391984641
 20
417.5808001293094
 30
0.0
  0
VERTEX
  5
592
  8
MAKE2D$VISIBLE$CURVES
 10
472.9354279462429
 20
417.6472237916103
 30
0.0
  0
VERTEX
  5
593
  8
MAKE2D$VISIBLE$CURVES
 10
472.9579098811589
 20
417.7129067502282
 30
0.0
  0
VERTEX
  5
594
  8
MAKE2D$VISIBLE$CURVES
 10
472.9826579142315
 20
417.7777698623138
 30
0.0
  0
VERTEX
  5
595
  8
MAKE2D$VISIBLE$CURVES
 10
473.0096422260073
 20
417.8417349728691
 30
0.0
  0
VERTEX
  5
596
  8
MAKE2D$VISIBLE$CURVES
 10
473.0388303024926
 20
417.904725008918
 30
0.0
  0
VERTEX
  5
597
  8
MAKE2D$VISIBLE$CURVES
 10
473.0701869743295
 20
417.966664072373
 30
0.0
  0
VERTEX
  5
598
  8
MAKE2D$VISIBLE$CURVES
 10
473.1036744591699
 20
418.0274775314871
 30
0.0
  0
VERTEX
  5
599
  8
MAKE2D$VISIBLE$CURVES
 10
473.1392524072041
 20
418.0870921107785
 30
0.0
  0
VERTEX
  5
59A
  8
MAKE2D$VISIBLE$CURVES
 10
473.176877949774
 20
418.1454359793226
 30
0.0
  0
VERTEX
  5
59B
  8
MAKE2D$VISIBLE$CURVES
 10
473.2165057510317
 20
418.2024388373018
 30
0.0
  0
VERTEX
  5
59C
  8
MAKE2D$VISIBLE$CURVES
 10
473.2580880625644
 20
418.2580320007123
 30
0.0
  0
VERTEX
  5
59D
  8
MAKE2D$VISIBLE$CURVES
 10
473.3015747809247
 20
418.3121484841219
 30
0.0
  0
VERTEX
  5
59E
  8
MAKE2D$VISIBLE$CURVES
 10
473.3469135080038
 20
418.3647230813834
 30
0.0
  0
VERTEX
  5
59F
  8
MAKE2D$VISIBLE$CURVES
 10
473.3940496141674
 20
418.4156924442017
 30
0.0
  0
VERTEX
  5
5A0
  8
MAKE2D$VISIBLE$CURVES
 10
473.442926304079
 20
418.4649951584648
 30
0.0
  0
VERTEX
  5
5A1
  8
MAKE2D$VISIBLE$CURVES
 10
473.4934846851326
 20
418.5125718182417
 30
0.0
  0
VERTEX
  5
5A2
  8
MAKE2D$VISIBLE$CURVES
 10
473.5456638384191
 20
418.5583650973634
 30
0.0
  0
VERTEX
  5
5A3
  8
MAKE2D$VISIBLE$CURVES
 10
473.5994008921213
 20
418.6023198184949
 30
0.0
  0
VERTEX
  5
5A4
  8
MAKE2D$VISIBLE$CURVES
 10
473.654631097276
 20
418.644383019621
 30
0.0
  0
VERTEX
  5
5A5
  8
MAKE2D$VISIBLE$CURVES
 10
473.7112879057865
 20
418.6845040178604
 30
0.0
  0
VERTEX
  5
5A6
  8
MAKE2D$VISIBLE$CURVES
 10
473.7693030506131
 20
418.7226344705353
 30
0.0
  0
VERTEX
  5
5A7
  8
MAKE2D$VISIBLE$CURVES
 10
473.8286066280231
 20
418.75872843342
 30
0.0
  0
VERTEX
  5
5A8
  8
MAKE2D$VISIBLE$CURVES
 10
473.8891271818272
 20
418.7927424161005
 30
0.0
  0
VERTEX
  5
5A9
  8
MAKE2D$VISIBLE$CURVES
 10
473.9507917894677
 20
418.8246354343768
 30
0.0
  0
VERTEX
  5
5AA
  8
MAKE2D$VISIBLE$CURVES
 10
474.0135261498987
 20
418.8543690596462
 30
0.0
  0
VERTEX
  5
5AB
  8
MAKE2D$VISIBLE$CURVES
 10
474.0772546731011
 20
418.881907465206
 30
0.0
  0
VERTEX
  5
5AC
  8
MAKE2D$VISIBLE$CURVES
 10
474.1419005711684
 20
418.9072174694223
 30
0.0
  0
VERTEX
  5
5AD
  8
MAKE2D$VISIBLE$CURVES
 10
474.2073859508288
 20
418.9302685757115
 30
0.0
  0
VERTEX
  5
5AE
  8
MAKE2D$VISIBLE$CURVES
 10
474.2736319072989
 20
418.9510330092858
 30
0.0
  0
VERTEX
  5
5AF
  8
MAKE2D$VISIBLE$CURVES
 10
474.3405586193628
 20
418.9694857506202
 30
0.0
  0
VERTEX
  5
5B0
  8
MAKE2D$VISIBLE$CURVES
 10
474.4080854455439
 20
418.9856045655984
 30
0.0
  0
VERTEX
  5
5B1
  8
MAKE2D$VISIBLE$CURVES
 10
474.4761310212759
 20
418.9993700323041
 30
0.0
  0
VERTEX
  5
5B2
  8
MAKE2D$VISIBLE$CURVES
 10
474.5446133569409
 20
419.0107655644217
 30
0.0
  0
VERTEX
  5
5B3
  8
MAKE2D$VISIBLE$CURVES
 10
474.6134499366578
 20
419.0197774312228
 30
0.0
  0
VERTEX
  5
5B4
  8
MAKE2D$VISIBLE$CURVES
 10
474.6825578177101
 20
419.0263947741099
 30
0.0
  0
VERTEX
  5
5B5
  8
MAKE2D$VISIBLE$CURVES
 10
474.7518537304829
 20
419.0306096197
 30
0.0
  0
VERTEX
  5
5B6
  8
MAKE2D$VISIBLE$CURVES
 10
474.8212541787986
 20
419.0324168894326
 30
0.0
  0
VERTEX
  5
5B7
  8
MAKE2D$VISIBLE$CURVES
 10
474.8906755405239
 20
419.0318144056883
 30
0.0
  0
VERTEX
  5
5B8
  8
MAKE2D$VISIBLE$CURVES
 10
474.9600341683224
 20
419.0288028944132
 30
0.0
  0
VERTEX
  5
5B9
  8
MAKE2D$VISIBLE$CURVES
 10
475.0292464904521
 20
419.0233859842438
 30
0.0
  0
VERTEX
  5
5BA
  8
MAKE2D$VISIBLE$CURVES
 10
475.0982291114548
 20
419.0155702021351
 30
0.0
  0
VERTEX
  5
5BB
  8
MAKE2D$VISIBLE$CURVES
 10
475.1668989126453
 20
419.0053649654954
 30
0.0
  0
VERTEX
  5
5BC
  8
MAKE2D$VISIBLE$CURVES
 10
475.235173152261
 20
418.9927825708403
 30
0.0
  0
VERTEX
  5
5BD
  8
MAKE2D$VISIBLE$CURVES
 10
475.3029695651618
 20
418.9778381789754
 30
0.0
  0
VERTEX
  5
5BE
  8
MAKE2D$VISIBLE$CURVES
 10
475.370206461949
 20
418.9605497967287
 30
0.0
  0
VERTEX
  5
5BF
  8
MAKE2D$VISIBLE$CURVES
 10
475.4368028274009
 20
418.9409382552544
 30
0.0
  0
VERTEX
  5
5C0
  8
MAKE2D$VISIBLE$CURVES
 10
475.5026784180833
 20
418.9190271849324
 30
0.0
  0
VERTEX
  5
5C1
  8
MAKE2D$VISIBLE$CURVES
 10
475.5677538590396
 20
418.894842986896
 30
0.0
  0
VERTEX
  5
5C2
  8
MAKE2D$VISIBLE$CURVES
 10
475.6319507394334
 20
418.8684148012199
 30
0.0
  0
VERTEX
  5
5C3
  8
MAKE2D$VISIBLE$CURVES
 10
475.6951917070225
 20
418.8397744718097
 30
0.0
  0
VERTEX
  5
5C4
  8
MAKE2D$VISIBLE$CURVES
 10
475.7574005613675
 20
418.8089565080314
 30
0.0
  0
VERTEX
  5
5C5
  8
MAKE2D$VISIBLE$CURVES
 10
475.8185023456442
 20
418.7759980431312
 30
0.0
  0
VERTEX
  5
5C6
  8
MAKE2D$VISIBLE$CURVES
 10
475.878423436962
 20
418.7409387894922
 30
0.0
  0
VERTEX
  5
5C7
  8
MAKE2D$VISIBLE$CURVES
 10
475.9370916350715
 20
418.7038209907843
 30
0.0
  0
VERTEX
  5
5C8
  8
MAKE2D$VISIBLE$CURVES
 10
475.9944362493649
 20
418.6646893710641
 30
0.0
  0
VERTEX
  5
5C9
  8
MAKE2D$VISIBLE$CURVES
 10
476.0503881840474
 20
418.6235910808852
 30
0.0
  0
VERTEX
  5
5CA
  8
MAKE2D$VISIBLE$CURVES
 10
476.1048800213964
 20
418.5805756404865
 30
0.0
  0
VERTEX
  5
5CB
  8
MAKE2D$VISIBLE$CURVES
 10
476.1578461029919
 20
418.5356948801232
 30
0.0
  0
VERTEX
  5
5CC
  8
MAKE2D$VISIBLE$CURVES
 10
476.2092226088313
 20
418.4890028776159
 30
0.0
  0
VERTEX
  5
5CD
  8
MAKE2D$VISIBLE$CURVES
 10
476.2589476342252
 20
418.4405558931909
 30
0.0
  0
VERTEX
  5
5CE
  8
MAKE2D$VISIBLE$CURVES
 10
476.3069612643928
 20
418.3904123016911
 30
0.0
  0
VERTEX
  5
5CF
  8
MAKE2D$VISIBLE$CURVES
 10
476.353205646649
 20
418.3386325222387
 30
0.0
  0
VERTEX
  5
5D0
  8
MAKE2D$VISIBLE$CURVES
 10
476.3976250601142
 20
418.2852789454349
 30
0.0
  0
VERTEX
  5
5D1
  8
MAKE2D$VISIBLE$CURVES
 10
476.4401659828561
 20
418.230415858184
 30
0.0
  0
VERTEX
  5
5D2
  8
MAKE2D$VISIBLE$CURVES
 10
476.4807771563744
 20
418.1741093662333
 30
0.0
  0
VERTEX
  5
5D3
  8
MAKE2D$VISIBLE$CURVES
 10
476.5194096473694
 20
418.1164273145199
 30
0.0
  0
VERTEX
  5
5D4
  8
MAKE2D$VISIBLE$CURVES
 10
476.5560169066991
 20
418.0574392054232
 30
0.0
  0
VERTEX
  5
5D5
  8
MAKE2D$VISIBLE$CURVES
 10
476.5905548254656
 20
417.9972161150206
 30
0.0
  0
VERTEX
  5
5D6
  8
MAKE2D$VISIBLE$CURVES
 10
476.6229817881674
 20
417.9358306074453
 30
0.0
  0
VERTEX
  5
5D7
  8
MAKE2D$VISIBLE$CURVES
 10
476.6532587228409
 20
417.8733566474527
 30
0.0
  0
VERTEX
  5
5D8
  8
MAKE2D$VISIBLE$CURVES
 10
476.6813491481368
 20
417.8098695112986
 30
0.0
  0
VERTEX
  5
5D9
  8
MAKE2D$VISIBLE$CURVES
 10
476.7072192172815
 20
417.7454456960374
 30
0.0
  0
VERTEX
  5
5DA
  8
MAKE2D$VISIBLE$CURVES
 10
476.7308377588567
 20
417.6801628273485
 30
0.0
  0
VERTEX
  5
5DB
  8
MAKE2D$VISIBLE$CURVES
 10
476.7521763143583
 20
417.6140995660041
 30
0.0
  0
VERTEX
  5
5DC
  8
MAKE2D$VISIBLE$CURVES
 10
476.7712091724904
 20
417.5473355130885
 30
0.0
  0
VERTEX
  5
5DD
  8
MAKE2D$VISIBLE$CURVES
 10
476.7879134001393
 20
417.4799511140854
 30
0.0
  0
VERTEX
  5
5DE
  8
MAKE2D$VISIBLE$CURVES
 10
476.8022688700136
 20
417.4120275619474
 30
0.0
  0
VERTEX
  5
5DF
  8
MAKE2D$VISIBLE$CURVES
 10
476.8142582848902
 20
417.3436466992642
 30
0.0
  0
VERTEX
  5
5E0
  8
MAKE2D$VISIBLE$CURVES
 10
476.823867198457
 20
417.2748909196493
 30
0.0
  0
VERTEX
  5
5E1
  8
MAKE2D$VISIBLE$CURVES
 10
476.8310840327219
 20
417.2058430684622
 30
0.0
  0
VERTEX
  5
5E2
  8
MAKE2D$VISIBLE$CURVES
 10
476.8359000919615
 20
417.1365863429854
 30
0.0
  0
VERTEX
  5
5E3
  8
MAKE2D$VISIBLE$CURVES
 10
476.8383095732003
 20
417.067204192179
 30
0.0
  0
VERTEX
  5
5E4
  8
MAKE2D$VISIBLE$CURVES
 10
476.8383095732003
 20
416.9977802161305
 30
0.0
  0
VERTEX
  5
5E5
  8
MAKE2D$VISIBLE$CURVES
 10
476.8359000919615
 20
416.9283980653241
 30
0.0
  0
VERTEX
  5
5E6
  8
MAKE2D$VISIBLE$CURVES
 10
476.8310840327219
 20
416.8591413398472
 30
0.0
  0
VERTEX
  5
5E7
  8
MAKE2D$VISIBLE$CURVES
 10
476.823867198457
 20
416.7900934886601
 30
0.0
  0
VERTEX
  5
5E8
  8
MAKE2D$VISIBLE$CURVES
 10
476.8142582848902
 20
416.7213377090453
 30
0.0
  0
VERTEX
  5
5E9
  8
MAKE2D$VISIBLE$CURVES
 10
476.8022688700136
 20
416.6529568463621
 30
0.0
  0
VERTEX
  5
5EA
  8
MAKE2D$VISIBLE$CURVES
 10
476.7879134001393
 20
416.585033294224
 30
0.0
  0
VERTEX
  5
5EB
  8
MAKE2D$VISIBLE$CURVES
 10
476.7712091724904
 20
416.5176488952209
 30
0.0
  0
VERTEX
  5
5EC
  8
MAKE2D$VISIBLE$CURVES
 10
476.7521763143583
 20
416.4508848423054
 30
0.0
  0
VERTEX
  5
5ED
  8
MAKE2D$VISIBLE$CURVES
 10
476.7308377588567
 20
416.3848215809609
 30
0.0
  0
VERTEX
  5
5EE
  8
MAKE2D$VISIBLE$CURVES
 10
476.7072192172815
 20
416.319538712272
 30
0.0
  0
VERTEX
  5
5EF
  8
MAKE2D$VISIBLE$CURVES
 10
476.6813491481368
 20
416.2551148970109
 30
0.0
  0
VERTEX
  5
5F0
  8
MAKE2D$VISIBLE$CURVES
 10
476.6532587228409
 20
416.1916277608568
 30
0.0
  0
VERTEX
  5
5F1
  8
MAKE2D$VISIBLE$CURVES
 10
476.6229817881674
 20
416.1291538008641
 30
0.0
  0
VERTEX
  5
5F2
  8
MAKE2D$VISIBLE$CURVES
 10
476.5905548254656
 20
416.0677682932888
 30
0.0
  0
VERTEX
  5
5F3
  8
MAKE2D$VISIBLE$CURVES
 10
476.5560169066991
 20
416.0075452028862
 30
0.0
  0
VERTEX
  5
5F4
  8
MAKE2D$VISIBLE$CURVES
 10
476.5194096473694
 20
415.9485570937896
 30
0.0
  0
VERTEX
  5
5F5
  8
MAKE2D$VISIBLE$CURVES
 10
476.4807771563744
 20
415.8908750420762
 30
0.0
  0
VERTEX
  5
5F6
  8
MAKE2D$VISIBLE$CURVES
 10
476.4401659828561
 20
415.8345685501254
 30
0.0
  0
VERTEX
  5
5F7
  8
MAKE2D$VISIBLE$CURVES
 10
476.3976250601142
 20
415.7797054628747
 30
0.0
  0
VERTEX
  5
5F8
  8
MAKE2D$VISIBLE$CURVES
 10
476.353205646649
 20
415.7263518860707
 30
0.0
  0
VERTEX
  5
5F9
  8
MAKE2D$VISIBLE$CURVES
 10
476.3069612643928
 20
415.6745721066183
 30
0.0
  0
VERTEX
  5
5FA
  8
MAKE2D$VISIBLE$CURVES
 10
476.2589476342252
 20
415.6244285151185
 30
0.0
  0
VERTEX
  5
5FB
  8
MAKE2D$VISIBLE$CURVES
 10
476.2092226088313
 20
415.5759815306936
 30
0.0
  0
VERTEX
  5
5FC
  8
MAKE2D$VISIBLE$CURVES
 10
476.1578461029919
 20
415.5292895281862
 30
0.0
  0
VERTEX
  5
5FD
  8
MAKE2D$VISIBLE$CURVES
 10
476.1048800213964
 20
415.4844087678229
 30
0.0
  0
VERTEX
  5
5FE
  8
MAKE2D$VISIBLE$CURVES
 10
476.0503881840474
 20
415.4413933274242
 30
0.0
  0
VERTEX
  5
5FF
  8
MAKE2D$VISIBLE$CURVES
 10
475.9944362493649
 20
415.4002950372454
 30
0.0
  0
VERTEX
  5
600
  8
MAKE2D$VISIBLE$CURVES
 10
475.9370916350715
 20
415.3611634175251
 30
0.0
  0
VERTEX
  5
601
  8
MAKE2D$VISIBLE$CURVES
 10
475.878423436962
 20
415.3240456188173
 30
0.0
  0
VERTEX
  5
602
  8
MAKE2D$VISIBLE$CURVES
 10
475.8185023456442
 20
415.2889863651782
 30
0.0
  0
VERTEX
  5
603
  8
MAKE2D$VISIBLE$CURVES
 10
475.7574005613675
 20
415.2560279002781
 30
0.0
  0
VERTEX
  5
604
  8
MAKE2D$VISIBLE$CURVES
 10
475.6951917070225
 20
415.2252099364998
 30
0.0
  0
VERTEX
  5
605
  8
MAKE2D$VISIBLE$CURVES
 10
475.6319507394334
 20
415.1965696070895
 30
0.0
  0
VERTEX
  5
606
  8
MAKE2D$VISIBLE$CURVES
 10
475.5677538590396
 20
415.1701414214135
 30
0.0
  0
VERTEX
  5
607
  8
MAKE2D$VISIBLE$CURVES
 10
475.5026784180833
 20
415.145957223377
 30
0.0
  0
VERTEX
  5
608
  8
MAKE2D$VISIBLE$CURVES
 10
475.4368028274009
 20
415.1240461530551
 30
0.0
  0
VERTEX
  5
609
  8
MAKE2D$VISIBLE$CURVES
 10
475.370206461949
 20
415.1044346115808
 30
0.0
  0
VERTEX
  5
60A
  8
MAKE2D$VISIBLE$CURVES
 10
475.3029695651618
 20
415.087146229334
 30
0.0
  0
VERTEX
  5
60B
  8
MAKE2D$VISIBLE$CURVES
 10
475.235173152261
 20
415.0722018374691
 30
0.0
  0
VERTEX
  5
60C
  8
MAKE2D$VISIBLE$CURVES
 10
475.1668989126453
 20
415.059619442814
 30
0.0
  0
VERTEX
  5
60D
  8
MAKE2D$VISIBLE$CURVES
 10
475.0982291114548
 20
415.0494142061744
 30
0.0
  0
VERTEX
  5
60E
  8
MAKE2D$VISIBLE$CURVES
 10
475.0292464904521
 20
415.0415984240656
 30
0.0
  0
VERTEX
  5
60F
  8
MAKE2D$VISIBLE$CURVES
 10
474.9600341683224
 20
415.0361815138962
 30
0.0
  0
VERTEX
  5
610
  8
MAKE2D$VISIBLE$CURVES
 10
474.8906755405239
 20
415.0331700026211
 30
0.0
  0
VERTEX
  5
611
  8
MAKE2D$VISIBLE$CURVES
 10
474.8212541787986
 20
415.0325675188769
 30
0.0
  0
VERTEX
  5
612
  8
MAKE2D$VISIBLE$CURVES
 10
474.7518537304829
 20
415.0343747886095
 30
0.0
  0
VERTEX
  5
613
  8
MAKE2D$VISIBLE$CURVES
 10
474.6825578177101
 20
415.0385896341996
 30
0.0
  0
VERTEX
  5
614
  8
MAKE2D$VISIBLE$CURVES
 10
474.6134499366578
 20
415.0452069770866
 30
0.0
  0
VERTEX
  5
615
  8
MAKE2D$VISIBLE$CURVES
 10
474.5446133569409
 20
415.0542188438878
 30
0.0
  0
VERTEX
  5
616
  8
MAKE2D$VISIBLE$CURVES
 10
474.4761310212759
 20
415.0656143760054
 30
0.0
  0
VERTEX
  5
617
  8
MAKE2D$VISIBLE$CURVES
 10
474.4080854455439
 20
415.079379842711
 30
0.0
  0
VERTEX
  5
618
  8
MAKE2D$VISIBLE$CURVES
 10
474.3405586193628
 20
415.0954986576892
 30
0.0
  0
VERTEX
  5
619
  8
MAKE2D$VISIBLE$CURVES
 10
474.2736319072989
 20
415.1139513990236
 30
0.0
  0
VERTEX
  5
61A
  8
MAKE2D$VISIBLE$CURVES
 10
474.2073859508288
 20
415.1347158325979
 30
0.0
  0
VERTEX
  5
61B
  8
MAKE2D$VISIBLE$CURVES
 10
474.1419005711684
 20
415.1577669388872
 30
0.0
  0
VERTEX
  5
61C
  8
MAKE2D$VISIBLE$CURVES
 10
474.0772546731011
 20
415.1830769431035
 30
0.0
  0
VERTEX
  5
61D
  8
MAKE2D$VISIBLE$CURVES
 10
474.0135261498987
 20
415.2106153486632
 30
0.0
  0
VERTEX
  5
61E
  8
MAKE2D$VISIBLE$CURVES
 10
473.9507917894677
 20
415.2403489739326
 30
0.0
  0
VERTEX
  5
61F
  8
MAKE2D$VISIBLE$CURVES
 10
473.8891271818272
 20
415.272241992209
 30
0.0
  0
VERTEX
  5
620
  8
MAKE2D$VISIBLE$CURVES
 10
473.8286066280231
 20
415.3062559748894
 30
0.0
  0
VERTEX
  5
621
  8
MAKE2D$VISIBLE$CURVES
 10
473.7693030506131
 20
415.3423499377741
 30
0.0
  0
VERTEX
  5
622
  8
MAKE2D$VISIBLE$CURVES
 10
473.7112879057865
 20
415.380480390449
 30
0.0
  0
VERTEX
  5
623
  8
MAKE2D$VISIBLE$CURVES
 10
473.654631097276
 20
415.4206013886885
 30
0.0
  0
VERTEX
  5
624
  8
MAKE2D$VISIBLE$CURVES
 10
473.5994008921213
 20
415.4626645898146
 30
0.0
  0
VERTEX
  5
625
  8
MAKE2D$VISIBLE$CURVES
 10
473.5456638384191
 20
415.5066193109461
 30
0.0
  0
VERTEX
  5
626
  8
MAKE2D$VISIBLE$CURVES
 10
473.4934846851326
 20
415.5524125900677
 30
0.0
  0
VERTEX
  5
627
  8
MAKE2D$VISIBLE$CURVES
 10
473.442926304079
 20
415.5999892498447
 30
0.0
  0
VERTEX
  5
628
  8
MAKE2D$VISIBLE$CURVES
 10
473.3940496141674
 20
415.6492919641077
 30
0.0
  0
VERTEX
  5
629
  8
MAKE2D$VISIBLE$CURVES
 10
473.3469135080038
 20
415.7002613269261
 30
0.0
  0
VERTEX
  5
62A
  8
MAKE2D$VISIBLE$CURVES
 10
473.3015747809247
 20
415.7528359241875
 30
0.0
  0
VERTEX
  5
62B
  8
MAKE2D$VISIBLE$CURVES
 10
473.2580880625644
 20
415.8069524075972
 30
0.0
  0
VERTEX
  5
62C
  8
MAKE2D$VISIBLE$CURVES
 10
473.2165057510317
 20
415.8625455710076
 30
0.0
  0
VERTEX
  5
62D
  8
MAKE2D$VISIBLE$CURVES
 10
473.176877949774
 20
415.9195484289868
 30
0.0
  0
VERTEX
  5
62E
  8
MAKE2D$VISIBLE$CURVES
 10
473.1392524072041
 20
415.9778922975309
 30
0.0
  0
VERTEX
  5
62F
  8
MAKE2D$VISIBLE$CURVES
 10
473.1036744591699
 20
416.0375068768223
 30
0.0
  0
VERTEX
  5
630
  8
MAKE2D$VISIBLE$CURVES
 10
473.0701869743295
 20
416.0983203359364
 30
0.0
  0
VERTEX
  5
631
  8
MAKE2D$VISIBLE$CURVES
 10
473.0388303024926
 20
416.1602593993915
 30
0.0
  0
VERTEX
  5
632
  8
MAKE2D$VISIBLE$CURVES
 10
473.0096422260073
 20
416.2232494354403
 30
0.0
  0
VERTEX
  5
633
  8
MAKE2D$VISIBLE$CURVES
 10
472.9826579142315
 20
416.2872145459956
 30
0.0
  0
VERTEX
  5
634
  8
MAKE2D$VISIBLE$CURVES
 10
472.9579098811589
 20
416.3520776580812
 30
0.0
  0
VERTEX
  5
635
  8
MAKE2D$VISIBLE$CURVES
 10
472.9354279462429
 20
416.4177606166991
 30
0.0
  0
VERTEX
  5
636
  8
MAKE2D$VISIBLE$CURVES
 10
472.9152391984641
 20
416.4841842790001
 30
0.0
  0
VERTEX
  5
637
  8
MAKE2D$VISIBLE$CURVES
 10
472.8973679636899
 20
416.5512686096446
 30
0.0
  0
VERTEX
  5
638
  8
MAKE2D$VISIBLE$CURVES
 10
472.8818357753668
 20
416.6189327772393
 30
0.0
  0
VERTEX
  5
639
  8
MAKE2D$VISIBLE$CURVES
 10
472.8686613485722
 20
416.6870952517323
 30
0.0
  0
VERTEX
  5
63A
  8
MAKE2D$VISIBLE$CURVES
 10
472.8578605574646
 20
416.7556739026508
 30
0.0
  0
VERTEX
  5
63B
  8
MAKE2D$VISIBLE$CURVES
 10
472.8494464161556
 20
416.8245860980621
 30
0.0
  0
VERTEX
  5
63C
  8
MAKE2D$VISIBLE$CURVES
 10
472.8434290630291
 20
416.8937488041379
 30
0.0
  0
VERTEX
  5
63D
  8
MAKE2D$VISIBLE$CURVES
 10
472.8398157485287
 20
416.9630786852044
 30
0.0
  0
SEQEND
  5
A88
  8
MAKE2D$VISIBLE$CURVES
  0
POLYLINE
  5
78
  8
MAKE2D$VISIBLE$CURVES
 66
     1
 10
0.0
 20
0.0
 30
0.0
 70
     1
  0
VERTEX
  5
63E
  8
MAKE2D$VISIBLE$CURVES
 10
472.8386108264155
 20
116.8690242794416
 30
0.0
  0
VERTEX
  5
63F
  8
MAKE2D$VISIBLE$CURVES
 10
472.8398157485278
 20
116.938437798392
 30
0.0
  0
VERTEX
  5
640
  8
MAKE2D$VISIBLE$CURVES
 10
472.8434290630282
 20
117.0077676794585
 30
0.0
  0
VERTEX
  5
641
  8
MAKE2D$VISIBLE$CURVES
 10
472.8494464161546
 20
117.0769303855343
 30
0.0
  0
VERTEX
  5
642
  8
MAKE2D$VISIBLE$CURVES
 10
472.8578605574637
 20
117.1458425809455
 30
0.0
  0
VERTEX
  5
643
  8
MAKE2D$VISIBLE$CURVES
 10
472.8686613485722
 20
117.2144212318641
 30
0.0
  0
VERTEX
  5
644
  8
MAKE2D$VISIBLE$CURVES
 10
472.8818357753659
 20
117.2825837063571
 30
0.0
  0
VERTEX
  5
645
  8
MAKE2D$VISIBLE$CURVES
 10
472.897367963689
 20
117.3502478739517
 30
0.0
  0
VERTEX
  5
646
  8
MAKE2D$VISIBLE$CURVES
 10
472.9152391984623
 20
117.4173322045962
 30
0.0
  0
VERTEX
  5
647
  8
MAKE2D$VISIBLE$CURVES
 10
472.935427946242
 20
117.4837558668972
 30
0.0
  0
VERTEX
  5
648
  8
MAKE2D$VISIBLE$CURVES
 10
472.9579098811579
 20
117.5494388255151
 30
0.0
  0
VERTEX
  5
649
  8
MAKE2D$VISIBLE$CURVES
 10
472.9826579142306
 20
117.6143019376007
 30
0.0
  0
VERTEX
  5
64A
  8
MAKE2D$VISIBLE$CURVES
 10
473.0096422260064
 20
117.678267048156
 30
0.0
  0
VERTEX
  5
64B
  8
MAKE2D$VISIBLE$CURVES
 10
473.0388303024917
 20
117.7412570842048
 30
0.0
  0
VERTEX
  5
64C
  8
MAKE2D$VISIBLE$CURVES
 10
473.0701869743286
 20
117.8031961476599
 30
0.0
  0
VERTEX
  5
64D
  8
MAKE2D$VISIBLE$CURVES
 10
473.103674459169
 20
117.8640096067739
 30
0.0
  0
VERTEX
  5
64E
  8
MAKE2D$VISIBLE$CURVES
 10
473.1392524072032
 20
117.9236241860654
 30
0.0
  0
VERTEX
  5
64F
  8
MAKE2D$VISIBLE$CURVES
 10
473.1768779497731
 20
117.9819680546094
 30
0.0
  0
VERTEX
  5
650
  8
MAKE2D$VISIBLE$CURVES
 10
473.2165057510308
 20
118.0389709125886
 30
0.0
  0
VERTEX
  5
651
  8
MAKE2D$VISIBLE$CURVES
 10
473.2580880625634
 20
118.094564075999
 30
0.0
  0
VERTEX
  5
652
  8
MAKE2D$VISIBLE$CURVES
 10
473.3015747809238
 20
118.1486805594087
 30
0.0
  0
VERTEX
  5
653
  8
MAKE2D$VISIBLE$CURVES
 10
473.3469135080028
 20
118.2012551566702
 30
0.0
  0
VERTEX
  5
654
  8
MAKE2D$VISIBLE$CURVES
 10
473.3940496141665
 20
118.2522245194885
 30
0.0
  0
VERTEX
  5
655
  8
MAKE2D$VISIBLE$CURVES
 10
473.4429263040781
 20
118.3015272337516
 30
0.0
  0
VERTEX
  5
656
  8
MAKE2D$VISIBLE$CURVES
 10
473.4934846851317
 20
118.3491038935285
 30
0.0
  0
VERTEX
  5
657
  8
MAKE2D$VISIBLE$CURVES
 10
473.5456638384182
 20
118.3948971726501
 30
0.0
  0
VERTEX
  5
658
  8
MAKE2D$VISIBLE$CURVES
 10
473.5994008921204
 20
118.4388518937816
 30
0.0
  0
VERTEX
  5
659
  8
MAKE2D$VISIBLE$CURVES
 10
473.6546310972751
 20
118.4809150949078
 30
0.0
  0
VERTEX
  5
65A
  8
MAKE2D$VISIBLE$CURVES
 10
473.7112879057856
 20
118.5210360931472
 30
0.0
  0
VERTEX
  5
65B
  8
MAKE2D$VISIBLE$CURVES
 10
473.7693030506113
 20
118.559166545822
 30
0.0
  0
VERTEX
  5
65C
  8
MAKE2D$VISIBLE$CURVES
 10
473.8286066280213
 20
118.5952605087066
 30
0.0
  0
VERTEX
  5
65D
  8
MAKE2D$VISIBLE$CURVES
 10
473.8891271818254
 20
118.6292744913871
 30
0.0
  0
VERTEX
  5
65E
  8
MAKE2D$VISIBLE$CURVES
 10
473.9507917894668
 20
118.6611675096635
 30
0.0
  0
VERTEX
  5
65F
  8
MAKE2D$VISIBLE$CURVES
 10
474.0135261498978
 20
118.6909011349327
 30
0.0
  0
VERTEX
  5
660
  8
MAKE2D$VISIBLE$CURVES
 10
474.0772546731002
 20
118.7184395404926
 30
0.0
  0
VERTEX
  5
661
  8
MAKE2D$VISIBLE$CURVES
 10
474.1419005711675
 20
118.7437495447089
 30
0.0
  0
VERTEX
  5
662
  8
MAKE2D$VISIBLE$CURVES
 10
474.2073859508279
 20
118.7668006509981
 30
0.0
  0
VERTEX
  5
663
  8
MAKE2D$VISIBLE$CURVES
 10
474.273631907298
 20
118.7875650845723
 30
0.0
  0
VERTEX
  5
664
  8
MAKE2D$VISIBLE$CURVES
 10
474.3405586193618
 20
118.8060178259068
 30
0.0
  0
VERTEX
  5
665
  8
MAKE2D$VISIBLE$CURVES
 10
474.408085445543
 20
118.822136640885
 30
0.0
  0
VERTEX
  5
666
  8
MAKE2D$VISIBLE$CURVES
 10
474.476131021275
 20
118.8359021075905
 30
0.0
  0
VERTEX
  5
667
  8
MAKE2D$VISIBLE$CURVES
 10
474.54461335694
 20
118.8472976397082
 30
0.0
  0
VERTEX
  5
668
  8
MAKE2D$VISIBLE$CURVES
 10
474.6134499366569
 20
118.8563095065093
 30
0.0
  0
VERTEX
  5
669
  8
MAKE2D$VISIBLE$CURVES
 10
474.6825578177083
 20
118.8629268493964
 30
0.0
  0
VERTEX
  5
66A
  8
MAKE2D$VISIBLE$CURVES
 10
474.751853730482
 20
118.8671416949863
 30
0.0
  0
VERTEX
  5
66B
  8
MAKE2D$VISIBLE$CURVES
 10
474.8212541787977
 20
118.868948964719
 30
0.0
  0
VERTEX
  5
66C
  8
MAKE2D$VISIBLE$CURVES
 10
474.890675540523
 20
118.8683464809747
 30
0.0
  0
VERTEX
  5
66D
  8
MAKE2D$VISIBLE$CURVES
 10
474.9600341683214
 20
118.8653349696997
 30
0.0
  0
VERTEX
  5
66E
  8
MAKE2D$VISIBLE$CURVES
 10
475.0292464904512
 20
118.8599180595302
 30
0.0
  0
VERTEX
  5
66F
  8
MAKE2D$VISIBLE$CURVES
 10
475.0982291114539
 20
118.8521022774214
 30
0.0
  0
VERTEX
  5
670
  8
MAKE2D$VISIBLE$CURVES
 10
475.1668989126444
 20
118.8418970407818
 30
0.0
  0
VERTEX
  5
671
  8
MAKE2D$VISIBLE$CURVES
 10
475.2351731522601
 20
118.8293146461266
 30
0.0
  0
VERTEX
  5
672
  8
MAKE2D$VISIBLE$CURVES
 10
475.3029695651609
 20
118.8143702542617
 30
0.0
  0
VERTEX
  5
673
  8
MAKE2D$VISIBLE$CURVES
 10
475.370206461948
 20
118.7970818720151
 30
0.0
  0
VERTEX
  5
674
  8
MAKE2D$VISIBLE$CURVES
 10
475.4368028274
 20
118.7774703305408
 30
0.0
  0
VERTEX
  5
675
  8
MAKE2D$VISIBLE$CURVES
 10
475.5026784180824
 20
118.7555592602187
 30
0.0
  0
VERTEX
  5
676
  8
MAKE2D$VISIBLE$CURVES
 10
475.5677538590386
 20
118.7313750621822
 30
0.0
  0
VERTEX
  5
677
  8
MAKE2D$VISIBLE$CURVES
 10
475.6319507394325
 20
118.7049468765062
 30
0.0
  0
VERTEX
  5
678
  8
MAKE2D$VISIBLE$CURVES
 10
475.6951917070216
 20
118.6763065470959
 30
0.0
  0
VERTEX
  5
679
  8
MAKE2D$VISIBLE$CURVES
 10
475.7574005613666
 20
118.6454885833176
 30
0.0
  0
VERTEX
  5
67A
  8
MAKE2D$VISIBLE$CURVES
 10
475.8185023456442
 20
118.6125301184174
 30
0.0
  0
VERTEX
  5
67B
  8
MAKE2D$VISIBLE$CURVES
 10
475.8784234369611
 20
118.5774708647784
 30
0.0
  0
VERTEX
  5
67C
  8
MAKE2D$VISIBLE$CURVES
 10
475.9370916350705
 20
118.5403530660705
 30
0.0
  0
VERTEX
  5
67D
  8
MAKE2D$VISIBLE$CURVES
 10
475.994436249364
 20
118.5012214463502
 30
0.0
  0
VERTEX
  5
67E
  8
MAKE2D$VISIBLE$CURVES
 10
476.0503881840465
 20
118.4601231561714
 30
0.0
  0
VERTEX
  5
67F
  8
MAKE2D$VISIBLE$CURVES
 10
476.1048800213954
 20
118.4171077157725
 30
0.0
  0
VERTEX
  5
680
  8
MAKE2D$VISIBLE$CURVES
 10
476.157846102991
 20
118.3722269554092
 30
0.0
  0
VERTEX
  5
681
  8
MAKE2D$VISIBLE$CURVES
 10
476.2092226088304
 20
118.325534952902
 30
0.0
  0
VERTEX
  5
682
  8
MAKE2D$VISIBLE$CURVES
 10
476.2589476342252
 20
118.277087968477
 30
0.0
  0
VERTEX
  5
683
  8
MAKE2D$VISIBLE$CURVES
 10
476.3069612643919
 20
118.2269443769771
 30
0.0
  0
VERTEX
  5
684
  8
MAKE2D$VISIBLE$CURVES
 10
476.3532056466481
 20
118.1751645975248
 30
0.0
  0
VERTEX
  5
685
  8
MAKE2D$VISIBLE$CURVES
 10
476.3976250601142
 20
118.1218110207209
 30
0.0
  0
VERTEX
  5
686
  8
MAKE2D$VISIBLE$CURVES
 10
476.4401659828551
 20
118.0669479334701
 30
0.0
  0
VERTEX
  5
687
  8
MAKE2D$VISIBLE$CURVES
 10
476.4807771563734
 20
118.0106414415193
 30
0.0
  0
VERTEX
  5
688
  8
MAKE2D$VISIBLE$CURVES
 10
476.5194096473685
 20
117.9529593898058
 30
0.0
  0
VERTEX
  5
689
  8
MAKE2D$VISIBLE$CURVES
 10
476.5560169066982
 20
117.8939712807093
 30
0.0
  0
VERTEX
  5
68A
  8
MAKE2D$VISIBLE$CURVES
 10
476.5905548254647
 20
117.8337481903067
 30
0.0
  0
VERTEX
  5
68B
  8
MAKE2D$VISIBLE$CURVES
 10
476.6229817881664
 20
117.7723626827314
 30
0.0
  0
VERTEX
  5
68C
  8
MAKE2D$VISIBLE$CURVES
 10
476.65325872284
 20
117.7098887227387
 30
0.0
  0
VERTEX
  5
68D
  8
MAKE2D$VISIBLE$CURVES
 10
476.6813491481359
 20
117.6464015865847
 30
0.0
  0
VERTEX
  5
68E
  8
MAKE2D$VISIBLE$CURVES
 10
476.7072192172806
 20
117.5819777713234
 30
0.0
  0
VERTEX
  5
68F
  8
MAKE2D$VISIBLE$CURVES
 10
476.7308377588558
 20
117.5166949026345
 30
0.0
  0
VERTEX
  5
690
  8
MAKE2D$VISIBLE$CURVES
 10
476.7521763143574
 20
117.45063164129
 30
0.0
  0
VERTEX
  5
691
  8
MAKE2D$VISIBLE$CURVES
 10
476.7712091724895
 20
117.3838675883744
 30
0.0
  0
VERTEX
  5
692
  8
MAKE2D$VISIBLE$CURVES
 10
476.7879134001384
 20
117.3164831893714
 30
0.0
  0
VERTEX
  5
693
  8
MAKE2D$VISIBLE$CURVES
 10
476.8022688700127
 20
117.2485596372333
 30
0.0
  0
VERTEX
  5
694
  8
MAKE2D$VISIBLE$CURVES
 10
476.8142582848902
 20
117.1801787745501
 30
0.0
  0
VERTEX
  5
695
  8
MAKE2D$VISIBLE$CURVES
 10
476.8238671984561
 20
117.1114229949353
 30
0.0
  0
VERTEX
  5
696
  8
MAKE2D$VISIBLE$CURVES
 10
476.831084032721
 20
117.0423751437482
 30
0.0
  0
VERTEX
  5
697
  8
MAKE2D$VISIBLE$CURVES
 10
476.8359000919606
 20
116.9731184182714
 30
0.0
  0
VERTEX
  5
698
  8
MAKE2D$VISIBLE$CURVES
 10
476.8383095731994
 20
116.9037362674649
 30
0.0
  0
VERTEX
  5
699
  8
MAKE2D$VISIBLE$CURVES
 10
476.8383095731994
 20
116.8343122914165
 30
0.0
  0
VERTEX
  5
69A
  8
MAKE2D$VISIBLE$CURVES
 10
476.8359000919606
 20
116.7649301406101
 30
0.0
  0
VERTEX
  5
69B
  8
MAKE2D$VISIBLE$CURVES
 10
476.831084032721
 20
116.6956734151333
 30
0.0
  0
VERTEX
  5
69C
  8
MAKE2D$VISIBLE$CURVES
 10
476.8238671984561
 20
116.626625563946
 30
0.0
  0
VERTEX
  5
69D
  8
MAKE2D$VISIBLE$CURVES
 10
476.8142582848902
 20
116.5578697843313
 30
0.0
  0
VERTEX
  5
69E
  8
MAKE2D$VISIBLE$CURVES
 10
476.8022688700127
 20
116.489488921648
 30
0.0
  0
VERTEX
  5
69F
  8
MAKE2D$VISIBLE$CURVES
 10
476.7879134001384
 20
116.4215653695099
 30
0.0
  0
VERTEX
  5
6A0
  8
MAKE2D$VISIBLE$CURVES
 10
476.7712091724895
 20
116.3541809705069
 30
0.0
  0
VERTEX
  5
6A1
  8
MAKE2D$VISIBLE$CURVES
 10
476.7521763143574
 20
116.2874169175914
 30
0.0
  0
VERTEX
  5
6A2
  8
MAKE2D$VISIBLE$CURVES
 10
476.7308377588558
 20
116.2213536562469
 30
0.0
  0
VERTEX
  5
6A3
  8
MAKE2D$VISIBLE$CURVES
 10
476.7072192172806
 20
116.1560707875581
 30
0.0
  0
VERTEX
  5
6A4
  8
MAKE2D$VISIBLE$CURVES
 10
476.6813491481359
 20
116.0916469722968
 30
0.0
  0
VERTEX
  5
6A5
  8
MAKE2D$VISIBLE$CURVES
 10
476.65325872284
 20
116.0281598361428
 30
0.0
  0
VERTEX
  5
6A6
  8
MAKE2D$VISIBLE$CURVES
 10
476.6229817881664
 20
115.9656858761502
 30
0.0
  0
VERTEX
  5
6A7
  8
MAKE2D$VISIBLE$CURVES
 10
476.5905548254647
 20
115.9043003685748
 30
0.0
  0
VERTEX
  5
6A8
  8
MAKE2D$VISIBLE$CURVES
 10
476.5560169066982
 20
115.8440772781722
 30
0.0
  0
VERTEX
  5
6A9
  8
MAKE2D$VISIBLE$CURVES
 10
476.5194096473685
 20
115.7850891690757
 30
0.0
  0
VERTEX
  5
6AA
  8
MAKE2D$VISIBLE$CURVES
 10
476.4807771563734
 20
115.7274071173622
 30
0.0
  0
VERTEX
  5
6AB
  8
MAKE2D$VISIBLE$CURVES
 10
476.4401659828551
 20
115.6711006254115
 30
0.0
  0
VERTEX
  5
6AC
  8
MAKE2D$VISIBLE$CURVES
 10
476.3976250601142
 20
115.6162375381606
 30
0.0
  0
VERTEX
  5
6AD
  8
MAKE2D$VISIBLE$CURVES
 10
476.3532056466481
 20
115.5628839613568
 30
0.0
  0
VERTEX
  5
6AE
  8
MAKE2D$VISIBLE$CURVES
 10
476.3069612643919
 20
115.5111041819044
 30
0.0
  0
VERTEX
  5
6AF
  8
MAKE2D$VISIBLE$CURVES
 10
476.2589476342252
 20
115.4609605904046
 30
0.0
  0
VERTEX
  5
6B0
  8
MAKE2D$VISIBLE$CURVES
 10
476.2092226088304
 20
115.4125136059797
 30
0.0
  0
VERTEX
  5
6B1
  8
MAKE2D$VISIBLE$CURVES
 10
476.157846102991
 20
115.3658216034724
 30
0.0
  0
VERTEX
  5
6B2
  8
MAKE2D$VISIBLE$CURVES
 10
476.1048800213954
 20
115.3209408431091
 30
0.0
  0
VERTEX
  5
6B3
  8
MAKE2D$VISIBLE$CURVES
 10
476.0503881840465
 20
115.2779254027104
 30
0.0
  0
VERTEX
  5
6B4
  8
MAKE2D$VISIBLE$CURVES
 10
475.994436249364
 20
115.2368271125316
 30
0.0
  0
VERTEX
  5
6B5
  8
MAKE2D$VISIBLE$CURVES
 10
475.9370916350705
 20
115.1976954928112
 30
0.0
  0
VERTEX
  5
6B6
  8
MAKE2D$VISIBLE$CURVES
 10
475.8784234369611
 20
115.1605776941035
 30
0.0
  0
VERTEX
  5
6B7
  8
MAKE2D$VISIBLE$CURVES
 10
475.8185023456442
 20
115.1255184404644
 30
0.0
  0
VERTEX
  5
6B8
  8
MAKE2D$VISIBLE$CURVES
 10
475.7574005613666
 20
115.0925599755642
 30
0.0
  0
VERTEX
  5
6B9
  8
MAKE2D$VISIBLE$CURVES
 10
475.6951917070216
 20
115.061742011786
 30
0.0
  0
VERTEX
  5
6BA
  8
MAKE2D$VISIBLE$CURVES
 10
475.6319507394325
 20
115.0331016823758
 30
0.0
  0
VERTEX
  5
6BB
  8
MAKE2D$VISIBLE$CURVES
 10
475.5677538590386
 20
115.0066734966998
 30
0.0
  0
VERTEX
  5
6BC
  8
MAKE2D$VISIBLE$CURVES
 10
475.5026784180824
 20
114.9824892986633
 30
0.0
  0
VERTEX
  5
6BD
  8
MAKE2D$VISIBLE$CURVES
 10
475.4368028274
 20
114.9605782283413
 30
0.0
  0
VERTEX
  5
6BE
  8
MAKE2D$VISIBLE$CURVES
 10
475.370206461948
 20
114.940966686867
 30
0.0
  0
VERTEX
  5
6BF
  8
MAKE2D$VISIBLE$CURVES
 10
475.3029695651609
 20
114.9236783046204
 30
0.0
  0
VERTEX
  5
6C0
  8
MAKE2D$VISIBLE$CURVES
 10
475.2351731522601
 20
114.9087339127554
 30
0.0
  0
VERTEX
  5
6C1
  8
MAKE2D$VISIBLE$CURVES
 10
475.1668989126444
 20
114.8961515181004
 30
0.0
  0
VERTEX
  5
6C2
  8
MAKE2D$VISIBLE$CURVES
 10
475.0982291114539
 20
114.8859462814607
 30
0.0
  0
VERTEX
  5
6C3
  8
MAKE2D$VISIBLE$CURVES
 10
475.0292464904512
 20
114.878130499352
 30
0.0
  0
VERTEX
  5
6C4
  8
MAKE2D$VISIBLE$CURVES
 10
474.9600341683214
 20
114.8727135891827
 30
0.0
  0
VERTEX
  5
6C5
  8
MAKE2D$VISIBLE$CURVES
 10
474.890675540523
 20
114.8697020779076
 30
0.0
  0
VERTEX
  5
6C6
  8
MAKE2D$VISIBLE$CURVES
 10
474.8212541787977
 20
114.8690995941633
 30
0.0
  0
VERTEX
  5
6C7
  8
MAKE2D$VISIBLE$CURVES
 10
474.751853730482
 20
114.870906863896
 30
0.0
  0
VERTEX
  5
6C8
  8
MAKE2D$VISIBLE$CURVES
 10
474.6825578177083
 20
114.8751217094861
 30
0.0
  0
VERTEX
  5
6C9
  8
MAKE2D$VISIBLE$CURVES
 10
474.6134499366569
 20
114.8817390523731
 30
0.0
  0
VERTEX
  5
6CA
  8
MAKE2D$VISIBLE$CURVES
 10
474.54461335694
 20
114.8907509191742
 30
0.0
  0
VERTEX
  5
6CB
  8
MAKE2D$VISIBLE$CURVES
 10
474.476131021275
 20
114.9021464512919
 30
0.0
  0
VERTEX
  5
6CC
  8
MAKE2D$VISIBLE$CURVES
 10
474.408085445543
 20
114.9159119179974
 30
0.0
  0
VERTEX
  5
6CD
  8
MAKE2D$VISIBLE$CURVES
 10
474.3405586193618
 20
114.9320307329758
 30
0.0
  0
VERTEX
  5
6CE
  8
MAKE2D$VISIBLE$CURVES
 10
474.273631907298
 20
114.9504834743101
 30
0.0
  0
VERTEX
  5
6CF
  8
MAKE2D$VISIBLE$CURVES
 10
474.2073859508279
 20
114.9712479078844
 30
0.0
  0
VERTEX
  5
6D0
  8
MAKE2D$VISIBLE$CURVES
 10
474.1419005711675
 20
114.9942990141737
 30
0.0
  0
VERTEX
  5
6D1
  8
MAKE2D$VISIBLE$CURVES
 10
474.0772546731002
 20
115.0196090183901
 30
0.0
  0
VERTEX
  5
6D2
  8
MAKE2D$VISIBLE$CURVES
 10
474.0135261498978
 20
115.0471474239498
 30
0.0
  0
VERTEX
  5
6D3
  8
MAKE2D$VISIBLE$CURVES
 10
473.9507917894668
 20
115.0768810492193
 30
0.0
  0
VERTEX
  5
6D4
  8
MAKE2D$VISIBLE$CURVES
 10
473.8891271818254
 20
115.1087740674957
 30
0.0
  0
VERTEX
  5
6D5
  8
MAKE2D$VISIBLE$CURVES
 10
473.8286066280213
 20
115.1427880501761
 30
0.0
  0
VERTEX
  5
6D6
  8
MAKE2D$VISIBLE$CURVES
 10
473.7693030506113
 20
115.1788820130608
 30
0.0
  0
VERTEX
  5
6D7
  8
MAKE2D$VISIBLE$CURVES
 10
473.7112879057856
 20
115.2170124657356
 30
0.0
  0
VERTEX
  5
6D8
  8
MAKE2D$VISIBLE$CURVES
 10
473.6546310972751
 20
115.2571334639751
 30
0.0
  0
VERTEX
  5
6D9
  8
MAKE2D$VISIBLE$CURVES
 10
473.5994008921204
 20
115.2991966651012
 30
0.0
  0
VERTEX
  5
6DA
  8
MAKE2D$VISIBLE$CURVES
 10
473.5456638384182
 20
115.3431513862328
 30
0.0
  0
VERTEX
  5
6DB
  8
MAKE2D$VISIBLE$CURVES
 10
473.4934846851317
 20
115.3889446653544
 30
0.0
  0
VERTEX
  5
6DC
  8
MAKE2D$VISIBLE$CURVES
 10
473.4429263040781
 20
115.4365213251315
 30
0.0
  0
VERTEX
  5
6DD
  8
MAKE2D$VISIBLE$CURVES
 10
473.3940496141665
 20
115.4858240393945
 30
0.0
  0
VERTEX
  5
6DE
  8
MAKE2D$VISIBLE$CURVES
 10
473.3469135080028
 20
115.5367934022129
 30
0.0
  0
VERTEX
  5
6DF
  8
MAKE2D$VISIBLE$CURVES
 10
473.3015747809238
 20
115.5893679994743
 30
0.0
  0
VERTEX
  5
6E0
  8
MAKE2D$VISIBLE$CURVES
 10
473.2580880625634
 20
115.643484482884
 30
0.0
  0
VERTEX
  5
6E1
  8
MAKE2D$VISIBLE$CURVES
 10
473.2165057510308
 20
115.6990776462944
 30
0.0
  0
VERTEX
  5
6E2
  8
MAKE2D$VISIBLE$CURVES
 10
473.1768779497731
 20
115.7560805042737
 30
0.0
  0
VERTEX
  5
6E3
  8
MAKE2D$VISIBLE$CURVES
 10
473.1392524072032
 20
115.8144243728177
 30
0.0
  0
VERTEX
  5
6E4
  8
MAKE2D$VISIBLE$CURVES
 10
473.103674459169
 20
115.8740389521092
 30
0.0
  0
VERTEX
  5
6E5
  8
MAKE2D$VISIBLE$CURVES
 10
473.0701869743286
 20
115.9348524112233
 30
0.0
  0
VERTEX
  5
6E6
  8
MAKE2D$VISIBLE$CURVES
 10
473.0388303024917
 20
115.9967914746783
 30
0.0
  0
VERTEX
  5
6E7
  8
MAKE2D$VISIBLE$CURVES
 10
473.0096422260064
 20
116.0597815107271
 30
0.0
  0
VERTEX
  5
6E8
  8
MAKE2D$VISIBLE$CURVES
 10
472.9826579142306
 20
116.1237466212824
 30
0.0
  0
VERTEX
  5
6E9
  8
MAKE2D$VISIBLE$CURVES
 10
472.9579098811579
 20
116.1886097333681
 30
0.0
  0
VERTEX
  5
6EA
  8
MAKE2D$VISIBLE$CURVES
 10
472.935427946242
 20
116.2542926919861
 30
0.0
  0
VERTEX
  5
6EB
  8
MAKE2D$VISIBLE$CURVES
 10
472.9152391984623
 20
116.320716354287
 30
0.0
  0
VERTEX
  5
6EC
  8
MAKE2D$VISIBLE$CURVES
 10
472.897367963689
 20
116.3878006849314
 30
0.0
  0
VERTEX
  5
6ED
  8
MAKE2D$VISIBLE$CURVES
 10
472.8818357753659
 20
116.4554648525261
 30
0.0
  0
VERTEX
  5
6EE
  8
MAKE2D$VISIBLE$CURVES
 10
472.8686613485722
 20
116.5236273270192
 30
0.0
  0
VERTEX
  5
6EF
  8
MAKE2D$VISIBLE$CURVES
 10
472.8578605574637
 20
116.5922059779377
 30
0.0
  0
VERTEX
  5
6F0
  8
MAKE2D$VISIBLE$CURVES
 10
472.8494464161546
 20
116.661118173349
 30
0.0
  0
VERTEX
  5
6F1
  8
MAKE2D$VISIBLE$CURVES
 10
472.8434290630282
 20
116.7302808794248
 30
0.0
  0
VERTEX
  5
6F2
  8
MAKE2D$VISIBLE$CURVES
 10
472.8398157485278
 20
116.7996107604912
 30
0.0
  0
SEQEND
  5
A89
  8
MAKE2D$VISIBLE$CURVES
  0
POLYLINE
  5
79
  8
MAKE2D$VISIBLE$CURVES
 66
     1
 10
0.0
 20
0.0
 30
0.0
 70
     1
  0
VERTEX
  5
6F3
  8
MAKE2D$VISIBLE$CURVES
 10
272.7032971789765
 20
116.8690242794425
 30
0.0
  0
VERTEX
  5
6F4
  8
MAKE2D$VISIBLE$CURVES
 10
272.7045021010887
 20
116.9384377983929
 30
0.0
  0
VERTEX
  5
6F5
  8
MAKE2D$VISIBLE$CURVES
 10
272.7081154155891
 20
117.0077676794594
 30
0.0
  0
VERTEX
  5
6F6
  8
MAKE2D$VISIBLE$CURVES
 10
272.7141327687156
 20
117.0769303855351
 30
0.0
  0
VERTEX
  5
6F7
  8
MAKE2D$VISIBLE$CURVES
 10
272.7225469100246
 20
117.1458425809464
 30
0.0
  0
VERTEX
  5
6F8
  8
MAKE2D$VISIBLE$CURVES
 10
272.7333477011313
 20
117.2144212318649
 30
0.0
  0
VERTEX
  5
6F9
  8
MAKE2D$VISIBLE$CURVES
 10
272.7465221279269
 20
117.282583706358
 30
0.0
  0
VERTEX
  5
6FA
  8
MAKE2D$VISIBLE$CURVES
 10
272.7620543162499
 20
117.3502478739526
 30
0.0
  0
VERTEX
  5
6FB
  8
MAKE2D$VISIBLE$CURVES
 10
272.7799255510242
 20
117.4173322045971
 30
0.0
  0
VERTEX
  5
6FC
  8
MAKE2D$VISIBLE$CURVES
 10
272.800114298803
 20
117.4837558668981
 30
0.0
  0
VERTEX
  5
6FD
  8
MAKE2D$VISIBLE$CURVES
 10
272.8225962337189
 20
117.5494388255159
 30
0.0
  0
VERTEX
  5
6FE
  8
MAKE2D$VISIBLE$CURVES
 10
272.8473442667916
 20
117.6143019376017
 30
0.0
  0
VERTEX
  5
6FF
  8
MAKE2D$VISIBLE$CURVES
 10
272.8743285785674
 20
117.678267048157
 30
0.0
  0
VERTEX
  5
700
  8
MAKE2D$VISIBLE$CURVES
 10
272.9035166550527
 20
117.7412570842058
 30
0.0
  0
VERTEX
  5
701
  8
MAKE2D$VISIBLE$CURVES
 10
272.9348733268895
 20
117.8031961476609
 30
0.0
  0
VERTEX
  5
702
  8
MAKE2D$VISIBLE$CURVES
 10
272.96836081173
 20
117.8640096067749
 30
0.0
  0
VERTEX
  5
703
  8
MAKE2D$VISIBLE$CURVES
 10
273.0039387597641
 20
117.9236241860664
 30
0.0
  0
VERTEX
  5
704
  8
MAKE2D$VISIBLE$CURVES
 10
273.0415643023341
 20
117.9819680546105
 30
0.0
  0
VERTEX
  5
705
  8
MAKE2D$VISIBLE$CURVES
 10
273.0811921035917
 20
118.0389709125897
 30
0.0
  0
VERTEX
  5
706
  8
MAKE2D$VISIBLE$CURVES
 10
273.1227744151244
 20
118.0945640760002
 30
0.0
  0
VERTEX
  5
707
  8
MAKE2D$VISIBLE$CURVES
 10
273.1662611334847
 20
118.1486805594099
 30
0.0
  0
VERTEX
  5
708
  8
MAKE2D$VISIBLE$CURVES
 10
273.2115998605638
 20
118.2012551566713
 30
0.0
  0
VERTEX
  5
709
  8
MAKE2D$VISIBLE$CURVES
 10
273.2587359667274
 20
118.2522245194897
 30
0.0
  0
VERTEX
  5
70A
  8
MAKE2D$VISIBLE$CURVES
 10
273.307612656639
 20
118.3015272337527
 30
0.0
  0
VERTEX
  5
70B
  8
MAKE2D$VISIBLE$CURVES
 10
273.3581710376927
 20
118.3491038935298
 30
0.0
  0
VERTEX
  5
70C
  8
MAKE2D$VISIBLE$CURVES
 10
273.4103501909792
 20
118.3948971726514
 30
0.0
  0
VERTEX
  5
70D
  8
MAKE2D$VISIBLE$CURVES
 10
273.4640872446814
 20
118.4388518937829
 30
0.0
  0
VERTEX
  5
70E
  8
MAKE2D$VISIBLE$CURVES
 10
273.519317449836
 20
118.480915094909
 30
0.0
  0
VERTEX
  5
70F
  8
MAKE2D$VISIBLE$CURVES
 10
273.5759742583465
 20
118.5210360931485
 30
0.0
  0
VERTEX
  5
710
  8
MAKE2D$VISIBLE$CURVES
 10
273.6339894031732
 20
118.5591665458232
 30
0.0
  0
VERTEX
  5
711
  8
MAKE2D$VISIBLE$CURVES
 10
273.6932929805832
 20
118.595260508708
 30
0.0
  0
VERTEX
  5
712
  8
MAKE2D$VISIBLE$CURVES
 10
273.7538135343863
 20
118.6292744913885
 30
0.0
  0
VERTEX
  5
713
  8
MAKE2D$VISIBLE$CURVES
 10
273.8154781420278
 20
118.6611675096649
 30
0.0
  0
VERTEX
  5
714
  8
MAKE2D$VISIBLE$CURVES
 10
273.8782125024588
 20
118.6909011349343
 30
0.0
  0
VERTEX
  5
715
  8
MAKE2D$VISIBLE$CURVES
 10
273.9419410256612
 20
118.718439540494
 30
0.0
  0
VERTEX
  5
716
  8
MAKE2D$VISIBLE$CURVES
 10
274.0065869237284
 20
118.7437495447104
 30
0.0
  0
VERTEX
  5
717
  8
MAKE2D$VISIBLE$CURVES
 10
274.0720723033889
 20
118.7668006509996
 30
0.0
  0
VERTEX
  5
718
  8
MAKE2D$VISIBLE$CURVES
 10
274.138318259859
 20
118.787565084574
 30
0.0
  0
VERTEX
  5
719
  8
MAKE2D$VISIBLE$CURVES
 10
274.2052449719228
 20
118.8060178259084
 30
0.0
  0
VERTEX
  5
71A
  8
MAKE2D$VISIBLE$CURVES
 10
274.272771798104
 20
118.8221366408866
 30
0.0
  0
VERTEX
  5
71B
  8
MAKE2D$VISIBLE$CURVES
 10
274.3408173738359
 20
118.8359021075922
 30
0.0
  0
VERTEX
  5
71C
  8
MAKE2D$VISIBLE$CURVES
 10
274.409299709501
 20
118.8472976397099
 30
0.0
  0
VERTEX
  5
71D
  8
MAKE2D$VISIBLE$CURVES
 10
274.4781362892178
 20
118.8563095065111
 30
0.0
  0
VERTEX
  5
71E
  8
MAKE2D$VISIBLE$CURVES
 10
274.5472441702702
 20
118.8629268493981
 30
0.0
  0
VERTEX
  5
71F
  8
MAKE2D$VISIBLE$CURVES
 10
274.6165400830429
 20
118.8671416949882
 30
0.0
  0
VERTEX
  5
720
  8
MAKE2D$VISIBLE$CURVES
 10
274.6859405313587
 20
118.8689489647208
 30
0.0
  0
VERTEX
  5
721
  8
MAKE2D$VISIBLE$CURVES
 10
274.7553618930839
 20
118.8683464809766
 30
0.0
  0
VERTEX
  5
722
  8
MAKE2D$VISIBLE$CURVES
 10
274.8247205208824
 20
118.8653349697015
 30
0.0
  0
VERTEX
  5
723
  8
MAKE2D$VISIBLE$CURVES
 10
274.8939328430121
 20
118.859918059532
 30
0.0
  0
VERTEX
  5
724
  8
MAKE2D$VISIBLE$CURVES
 10
274.9629154640149
 20
118.8521022774233
 30
0.0
  0
VERTEX
  5
725
  8
MAKE2D$VISIBLE$CURVES
 10
275.0315852652054
 20
118.8418970407837
 30
0.0
  0
VERTEX
  5
726
  8
MAKE2D$VISIBLE$CURVES
 10
275.099859504821
 20
118.8293146461288
 30
0.0
  0
VERTEX
  5
727
  8
MAKE2D$VISIBLE$CURVES
 10
275.1676559177219
 20
118.8143702542638
 30
0.0
  0
VERTEX
  5
728
  8
MAKE2D$VISIBLE$CURVES
 10
275.234892814509
 20
118.7970818720171
 30
0.0
  0
VERTEX
  5
729
  8
MAKE2D$VISIBLE$CURVES
 10
275.3014891799609
 20
118.7774703305428
 30
0.0
  0
VERTEX
  5
72A
  8
MAKE2D$VISIBLE$CURVES
 10
275.3673647706434
 20
118.7555592602208
 30
0.0
  0
VERTEX
  5
72B
  8
MAKE2D$VISIBLE$CURVES
 10
275.4324402115996
 20
118.7313750621844
 30
0.0
  0
VERTEX
  5
72C
  8
MAKE2D$VISIBLE$CURVES
 10
275.4966370919935
 20
118.7049468765082
 30
0.0
  0
VERTEX
  5
72D
  8
MAKE2D$VISIBLE$CURVES
 10
275.5598780595826
 20
118.6763065470981
 30
0.0
  0
VERTEX
  5
72E
  8
MAKE2D$VISIBLE$CURVES
 10
275.6220869139276
 20
118.6454885833199
 30
0.0
  0
VERTEX
  5
72F
  8
MAKE2D$VISIBLE$CURVES
 10
275.6831886982033
 20
118.6125301184197
 30
0.0
  0
VERTEX
  5
730
  8
MAKE2D$VISIBLE$CURVES
 10
275.7431097895221
 20
118.5774708647807
 30
0.0
  0
VERTEX
  5
731
  8
MAKE2D$VISIBLE$CURVES
 10
275.8017779876315
 20
118.5403530660728
 30
0.0
  0
VERTEX
  5
732
  8
MAKE2D$VISIBLE$CURVES
 10
275.859122601925
 20
118.5012214463526
 30
0.0
  0
VERTEX
  5
733
  8
MAKE2D$VISIBLE$CURVES
 10
275.9150745366075
 20
118.4601231561737
 30
0.0
  0
VERTEX
  5
734
  8
MAKE2D$VISIBLE$CURVES
 10
275.9695663739564
 20
118.417107715775
 30
0.0
  0
VERTEX
  5
735
  8
MAKE2D$VISIBLE$CURVES
 10
276.0225324555519
 20
118.3722269554117
 30
0.0
  0
VERTEX
  5
736
  8
MAKE2D$VISIBLE$CURVES
 10
276.0739089613914
 20
118.3255349529045
 30
0.0
  0
VERTEX
  5
737
  8
MAKE2D$VISIBLE$CURVES
 10
276.1236339867862
 20
118.2770879684795
 30
0.0
  0
VERTEX
  5
738
  8
MAKE2D$VISIBLE$CURVES
 10
276.1716476169528
 20
118.2269443769796
 30
0.0
  0
VERTEX
  5
739
  8
MAKE2D$VISIBLE$CURVES
 10
276.217891999209
 20
118.1751645975273
 30
0.0
  0
VERTEX
  5
73A
  8
MAKE2D$VISIBLE$CURVES
 10
276.2623114126752
 20
118.1218110207234
 30
0.0
  0
VERTEX
  5
73B
  8
MAKE2D$VISIBLE$CURVES
 10
276.3048523354161
 20
118.0669479334726
 30
0.0
  0
VERTEX
  5
73C
  8
MAKE2D$VISIBLE$CURVES
 10
276.3454635089344
 20
118.0106414415219
 30
0.0
  0
VERTEX
  5
73D
  8
MAKE2D$VISIBLE$CURVES
 10
276.3840959999295
 20
117.9529593898085
 30
0.0
  0
VERTEX
  5
73E
  8
MAKE2D$VISIBLE$CURVES
 10
276.4207032592591
 20
117.893971280712
 30
0.0
  0
VERTEX
  5
73F
  8
MAKE2D$VISIBLE$CURVES
 10
276.4552411780257
 20
117.8337481903093
 30
0.0
  0
VERTEX
  5
740
  8
MAKE2D$VISIBLE$CURVES
 10
276.4876681407274
 20
117.772362682734
 30
0.0
  0
VERTEX
  5
741
  8
MAKE2D$VISIBLE$CURVES
 10
276.517945075401
 20
117.7098887227413
 30
0.0
  0
VERTEX
  5
742
  8
MAKE2D$VISIBLE$CURVES
 10
276.5460355006969
 20
117.6464015865873
 30
0.0
  0
VERTEX
  5
743
  8
MAKE2D$VISIBLE$CURVES
 10
276.5719055698416
 20
117.5819777713261
 30
0.0
  0
VERTEX
  5
744
  8
MAKE2D$VISIBLE$CURVES
 10
276.5955241114168
 20
117.5166949026372
 30
0.0
  0
VERTEX
  5
745
  8
MAKE2D$VISIBLE$CURVES
 10
276.6168626669184
 20
117.4506316412927
 30
0.0
  0
VERTEX
  5
746
  8
MAKE2D$VISIBLE$CURVES
 10
276.6358955250504
 20
117.3838675883772
 30
0.0
  0
VERTEX
  5
747
  8
MAKE2D$VISIBLE$CURVES
 10
276.6525997526994
 20
117.3164831893742
 30
0.0
  0
VERTEX
  5
748
  8
MAKE2D$VISIBLE$CURVES
 10
276.6669552225737
 20
117.2485596372361
 30
0.0
  0
VERTEX
  5
749
  8
MAKE2D$VISIBLE$CURVES
 10
276.6789446374493
 20
117.1801787745528
 30
0.0
  0
VERTEX
  5
74A
  8
MAKE2D$VISIBLE$CURVES
 10
276.688553551017
 20
117.1114229949381
 30
0.0
  0
VERTEX
  5
74B
  8
MAKE2D$VISIBLE$CURVES
 10
276.6957703852819
 20
117.0423751437509
 30
0.0
  0
VERTEX
  5
74C
  8
MAKE2D$VISIBLE$CURVES
 10
276.7005864445215
 20
116.9731184182741
 30
0.0
  0
VERTEX
  5
74D
  8
MAKE2D$VISIBLE$CURVES
 10
276.7029959257604
 20
116.9037362674676
 30
0.0
  0
VERTEX
  5
74E
  8
MAKE2D$VISIBLE$CURVES
 10
276.7029959257604
 20
116.8343122914193
 30
0.0
  0
VERTEX
  5
74F
  8
MAKE2D$VISIBLE$CURVES
 10
276.7005864445215
 20
116.7649301406128
 30
0.0
  0
VERTEX
  5
750
  8
MAKE2D$VISIBLE$CURVES
 10
276.6957703852819
 20
116.695673415136
 30
0.0
  0
VERTEX
  5
751
  8
MAKE2D$VISIBLE$CURVES
 10
276.688553551017
 20
116.6266255639488
 30
0.0
  0
VERTEX
  5
752
  8
MAKE2D$VISIBLE$CURVES
 10
276.6789446374493
 20
116.5578697843339
 30
0.0
  0
VERTEX
  5
753
  8
MAKE2D$VISIBLE$CURVES
 10
276.6669552225737
 20
116.4894889216508
 30
0.0
  0
VERTEX
  5
754
  8
MAKE2D$VISIBLE$CURVES
 10
276.6525997526994
 20
116.4215653695127
 30
0.0
  0
VERTEX
  5
755
  8
MAKE2D$VISIBLE$CURVES
 10
276.6358955250504
 20
116.3541809705097
 30
0.0
  0
VERTEX
  5
756
  8
MAKE2D$VISIBLE$CURVES
 10
276.6168626669184
 20
116.2874169175941
 30
0.0
  0
VERTEX
  5
757
  8
MAKE2D$VISIBLE$CURVES
 10
276.5955241114168
 20
116.2213536562496
 30
0.0
  0
VERTEX
  5
758
  8
MAKE2D$VISIBLE$CURVES
 10
276.5719055698416
 20
116.1560707875607
 30
0.0
  0
VERTEX
  5
759
  8
MAKE2D$VISIBLE$CURVES
 10
276.5460355006969
 20
116.0916469722995
 30
0.0
  0
VERTEX
  5
75A
  8
MAKE2D$VISIBLE$CURVES
 10
276.517945075401
 20
116.0281598361454
 30
0.0
  0
VERTEX
  5
75B
  8
MAKE2D$VISIBLE$CURVES
 10
276.4876681407274
 20
115.9656858761527
 30
0.0
  0
VERTEX
  5
75C
  8
MAKE2D$VISIBLE$CURVES
 10
276.4552411780257
 20
115.9043003685775
 30
0.0
  0
VERTEX
  5
75D
  8
MAKE2D$VISIBLE$CURVES
 10
276.4207032592591
 20
115.8440772781748
 30
0.0
  0
VERTEX
  5
75E
  8
MAKE2D$VISIBLE$CURVES
 10
276.3840959999295
 20
115.7850891690783
 30
0.0
  0
VERTEX
  5
75F
  8
MAKE2D$VISIBLE$CURVES
 10
276.3454635089344
 20
115.7274071173647
 30
0.0
  0
VERTEX
  5
760
  8
MAKE2D$VISIBLE$CURVES
 10
276.3048523354161
 20
115.671100625414
 30
0.0
  0
VERTEX
  5
761
  8
MAKE2D$VISIBLE$CURVES
 10
276.2623114126752
 20
115.6162375381631
 30
0.0
  0
VERTEX
  5
762
  8
MAKE2D$VISIBLE$CURVES
 10
276.217891999209
 20
115.5628839613593
 30
0.0
  0
VERTEX
  5
763
  8
MAKE2D$VISIBLE$CURVES
 10
276.1716476169528
 20
115.5111041819069
 30
0.0
  0
VERTEX
  5
764
  8
MAKE2D$VISIBLE$CURVES
 10
276.1236339867862
 20
115.4609605904071
 30
0.0
  0
VERTEX
  5
765
  8
MAKE2D$VISIBLE$CURVES
 10
276.0739089613914
 20
115.4125136059821
 30
0.0
  0
VERTEX
  5
766
  8
MAKE2D$VISIBLE$CURVES
 10
276.0225324555519
 20
115.3658216034748
 30
0.0
  0
VERTEX
  5
767
  8
MAKE2D$VISIBLE$CURVES
 10
275.9695663739564
 20
115.3209408431115
 30
0.0
  0
VERTEX
  5
768
  8
MAKE2D$VISIBLE$CURVES
 10
275.9150745366075
 20
115.2779254027128
 30
0.0
  0
VERTEX
  5
769
  8
MAKE2D$VISIBLE$CURVES
 10
275.859122601925
 20
115.2368271125339
 30
0.0
  0
VERTEX
  5
76A
  8
MAKE2D$VISIBLE$CURVES
 10
275.8017779876315
 20
115.1976954928136
 30
0.0
  0
VERTEX
  5
76B
  8
MAKE2D$VISIBLE$CURVES
 10
275.7431097895221
 20
115.1605776941057
 30
0.0
  0
VERTEX
  5
76C
  8
MAKE2D$VISIBLE$CURVES
 10
275.6831886982033
 20
115.1255184404667
 30
0.0
  0
VERTEX
  5
76D
  8
MAKE2D$VISIBLE$CURVES
 10
275.6220869139276
 20
115.0925599755665
 30
0.0
  0
VERTEX
  5
76E
  8
MAKE2D$VISIBLE$CURVES
 10
275.5598780595826
 20
115.0617420117882
 30
0.0
  0
VERTEX
  5
76F
  8
MAKE2D$VISIBLE$CURVES
 10
275.4966370919935
 20
115.0331016823779
 30
0.0
  0
VERTEX
  5
770
  8
MAKE2D$VISIBLE$CURVES
 10
275.4324402115996
 20
115.0066734967019
 30
0.0
  0
VERTEX
  5
771
  8
MAKE2D$VISIBLE$CURVES
 10
275.3673647706434
 20
114.9824892986655
 30
0.0
  0
VERTEX
  5
772
  8
MAKE2D$VISIBLE$CURVES
 10
275.3014891799609
 20
114.9605782283434
 30
0.0
  0
VERTEX
  5
773
  8
MAKE2D$VISIBLE$CURVES
 10
275.234892814509
 20
114.940966686869
 30
0.0
  0
VERTEX
  5
774
  8
MAKE2D$VISIBLE$CURVES
 10
275.1676559177219
 20
114.9236783046224
 30
0.0
  0
VERTEX
  5
775
  8
MAKE2D$VISIBLE$CURVES
 10
275.099859504821
 20
114.9087339127574
 30
0.0
  0
VERTEX
  5
776
  8
MAKE2D$VISIBLE$CURVES
 10
275.0315852652054
 20
114.8961515181023
 30
0.0
  0
VERTEX
  5
777
  8
MAKE2D$VISIBLE$CURVES
 10
274.9629154640149
 20
114.8859462814628
 30
0.0
  0
VERTEX
  5
778
  8
MAKE2D$VISIBLE$CURVES
 10
274.8939328430121
 20
114.8781304993539
 30
0.0
  0
VERTEX
  5
779
  8
MAKE2D$VISIBLE$CURVES
 10
274.8247205208824
 20
114.8727135891845
 30
0.0
  0
VERTEX
  5
77A
  8
MAKE2D$VISIBLE$CURVES
 10
274.7553618930839
 20
114.8697020779094
 30
0.0
  0
VERTEX
  5
77B
  8
MAKE2D$VISIBLE$CURVES
 10
274.6859405313587
 20
114.8690995941652
 30
0.0
  0
VERTEX
  5
77C
  8
MAKE2D$VISIBLE$CURVES
 10
274.6165400830429
 20
114.8709068638977
 30
0.0
  0
VERTEX
  5
77D
  8
MAKE2D$VISIBLE$CURVES
 10
274.5472441702702
 20
114.8751217094878
 30
0.0
  0
VERTEX
  5
77E
  8
MAKE2D$VISIBLE$CURVES
 10
274.4781362892178
 20
114.8817390523748
 30
0.0
  0
VERTEX
  5
77F
  8
MAKE2D$VISIBLE$CURVES
 10
274.409299709501
 20
114.8907509191759
 30
0.0
  0
VERTEX
  5
780
  8
MAKE2D$VISIBLE$CURVES
 10
274.3408173738359
 20
114.9021464512936
 30
0.0
  0
VERTEX
  5
781
  8
MAKE2D$VISIBLE$CURVES
 10
274.272771798104
 20
114.9159119179991
 30
0.0
  0
VERTEX
  5
782
  8
MAKE2D$VISIBLE$CURVES
 10
274.2052449719228
 20
114.9320307329774
 30
0.0
  0
VERTEX
  5
783
  8
MAKE2D$VISIBLE$CURVES
 10
274.138318259859
 20
114.9504834743117
 30
0.0
  0
VERTEX
  5
784
  8
MAKE2D$VISIBLE$CURVES
 10
274.0720723033889
 20
114.971247907886
 30
0.0
  0
VERTEX
  5
785
  8
MAKE2D$VISIBLE$CURVES
 10
274.0065869237284
 20
114.9942990141752
 30
0.0
  0
VERTEX
  5
786
  8
MAKE2D$VISIBLE$CURVES
 10
273.9419410256612
 20
115.0196090183915
 30
0.0
  0
VERTEX
  5
787
  8
MAKE2D$VISIBLE$CURVES
 10
273.8782125024588
 20
115.0471474239513
 30
0.0
  0
VERTEX
  5
788
  8
MAKE2D$VISIBLE$CURVES
 10
273.8154781420278
 20
115.0768810492206
 30
0.0
  0
VERTEX
  5
789
  8
MAKE2D$VISIBLE$CURVES
 10
273.7538135343863
 20
115.108774067497
 30
0.0
  0
VERTEX
  5
78A
  8
MAKE2D$VISIBLE$CURVES
 10
273.6932929805832
 20
115.1427880501774
 30
0.0
  0
VERTEX
  5
78B
  8
MAKE2D$VISIBLE$CURVES
 10
273.6339894031732
 20
115.1788820130622
 30
0.0
  0
VERTEX
  5
78C
  8
MAKE2D$VISIBLE$CURVES
 10
273.5759742583465
 20
115.2170124657369
 30
0.0
  0
VERTEX
  5
78D
  8
MAKE2D$VISIBLE$CURVES
 10
273.519317449836
 20
115.2571334639763
 30
0.0
  0
VERTEX
  5
78E
  8
MAKE2D$VISIBLE$CURVES
 10
273.4640872446814
 20
115.2991966651025
 30
0.0
  0
VERTEX
  5
78F
  8
MAKE2D$VISIBLE$CURVES
 10
273.4103501909792
 20
115.343151386234
 30
0.0
  0
VERTEX
  5
790
  8
MAKE2D$VISIBLE$CURVES
 10
273.3581710376927
 20
115.3889446653556
 30
0.0
  0
VERTEX
  5
791
  8
MAKE2D$VISIBLE$CURVES
 10
273.307612656639
 20
115.4365213251326
 30
0.0
  0
VERTEX
  5
792
  8
MAKE2D$VISIBLE$CURVES
 10
273.2587359667274
 20
115.4858240393956
 30
0.0
  0
VERTEX
  5
793
  8
MAKE2D$VISIBLE$CURVES
 10
273.2115998605638
 20
115.536793402214
 30
0.0
  0
VERTEX
  5
794
  8
MAKE2D$VISIBLE$CURVES
 10
273.1662611334847
 20
115.5893679994754
 30
0.0
  0
VERTEX
  5
795
  8
MAKE2D$VISIBLE$CURVES
 10
273.1227744151244
 20
115.6434844828851
 30
0.0
  0
VERTEX
  5
796
  8
MAKE2D$VISIBLE$CURVES
 10
273.0811921035917
 20
115.6990776462954
 30
0.0
  0
VERTEX
  5
797
  8
MAKE2D$VISIBLE$CURVES
 10
273.0415643023341
 20
115.7560805042747
 30
0.0
  0
VERTEX
  5
798
  8
MAKE2D$VISIBLE$CURVES
 10
273.0039387597641
 20
115.8144243728188
 30
0.0
  0
VERTEX
  5
799
  8
MAKE2D$VISIBLE$CURVES
 10
272.96836081173
 20
115.8740389521102
 30
0.0
  0
VERTEX
  5
79A
  8
MAKE2D$VISIBLE$CURVES
 10
272.9348733268895
 20
115.9348524112243
 30
0.0
  0
VERTEX
  5
79B
  8
MAKE2D$VISIBLE$CURVES
 10
272.9035166550527
 20
115.9967914746793
 30
0.0
  0
VERTEX
  5
79C
  8
MAKE2D$VISIBLE$CURVES
 10
272.8743285785674
 20
116.059781510728
 30
0.0
  0
VERTEX
  5
79D
  8
MAKE2D$VISIBLE$CURVES
 10
272.8473442667916
 20
116.1237466212835
 30
0.0
  0
VERTEX
  5
79E
  8
MAKE2D$VISIBLE$CURVES
 10
272.8225962337189
 20
116.188609733369
 30
0.0
  0
VERTEX
  5
79F
  8
MAKE2D$VISIBLE$CURVES
 10
272.800114298803
 20
116.254292691987
 30
0.0
  0
VERTEX
  5
7A0
  8
MAKE2D$VISIBLE$CURVES
 10
272.7799255510242
 20
116.320716354288
 30
0.0
  0
VERTEX
  5
7A1
  8
MAKE2D$VISIBLE$CURVES
 10
272.7620543162499
 20
116.3878006849324
 30
0.0
  0
VERTEX
  5
7A2
  8
MAKE2D$VISIBLE$CURVES
 10
272.7465221279269
 20
116.4554648525271
 30
0.0
  0
VERTEX
  5
7A3
  8
MAKE2D$VISIBLE$CURVES
 10
272.7333477011313
 20
116.5236273270201
 30
0.0
  0
VERTEX
  5
7A4
  8
MAKE2D$VISIBLE$CURVES
 10
272.7225469100246
 20
116.5922059779386
 30
0.0
  0
VERTEX
  5
7A5
  8
MAKE2D$VISIBLE$CURVES
 10
272.7141327687156
 20
116.6611181733498
 30
0.0
  0
VERTEX
  5
7A6
  8
MAKE2D$VISIBLE$CURVES
 10
272.7081154155891
 20
116.7302808794257
 30
0.0
  0
VERTEX
  5
7A7
  8
MAKE2D$VISIBLE$CURVES
 10
272.7045021010887
 20
116.7996107604922
 30
0.0
  0
SEQEND
  5
A8A
  8
MAKE2D$VISIBLE$CURVES
  0
POLYLINE
  5
7A
  8
MAKE2D$VISIBLE$CURVES
 66
     1
 10
0.0
 20
0.0
 30
0.0
 70
     1
  0
VERTEX
  5
7A8
  8
MAKE2D$VISIBLE$CURVES
 10
272.7032971789765
 20
283.3765424000673
 30
0.0
  0
VERTEX
  5
7A9
  8
MAKE2D$VISIBLE$CURVES
 10
272.7045021010887
 20
283.4459559190176
 30
0.0
  0
VERTEX
  5
7AA
  8
MAKE2D$VISIBLE$CURVES
 10
272.7081154155891
 20
283.5152858000842
 30
0.0
  0
VERTEX
  5
7AB
  8
MAKE2D$VISIBLE$CURVES
 10
272.7141327687156
 20
283.58444850616
 30
0.0
  0
VERTEX
  5
7AC
  8
MAKE2D$VISIBLE$CURVES
 10
272.7225469100246
 20
283.6533607015712
 30
0.0
  0
VERTEX
  5
7AD
  8
MAKE2D$VISIBLE$CURVES
 10
272.7333477011313
 20
283.7219393524898
 30
0.0
  0
VERTEX
  5
7AE
  8
MAKE2D$VISIBLE$CURVES
 10
272.7465221279269
 20
283.7901018269828
 30
0.0
  0
VERTEX
  5
7AF
  8
MAKE2D$VISIBLE$CURVES
 10
272.7620543162499
 20
283.8577659945774
 30
0.0
  0
VERTEX
  5
7B0
  8
MAKE2D$VISIBLE$CURVES
 10
272.7799255510242
 20
283.9248503252219
 30
0.0
  0
VERTEX
  5
7B1
  8
MAKE2D$VISIBLE$CURVES
 10
272.800114298803
 20
283.9912739875228
 30
0.0
  0
VERTEX
  5
7B2
  8
MAKE2D$VISIBLE$CURVES
 10
272.8225962337189
 20
284.0569569461408
 30
0.0
  0
VERTEX
  5
7B3
  8
MAKE2D$VISIBLE$CURVES
 10
272.8473442667916
 20
284.1218200582265
 30
0.0
  0
VERTEX
  5
7B4
  8
MAKE2D$VISIBLE$CURVES
 10
272.8743285785674
 20
284.1857851687818
 30
0.0
  0
VERTEX
  5
7B5
  8
MAKE2D$VISIBLE$CURVES
 10
272.9035166550527
 20
284.2487752048306
 30
0.0
  0
VERTEX
  5
7B6
  8
MAKE2D$VISIBLE$CURVES
 10
272.9348733268895
 20
284.3107142682856
 30
0.0
  0
VERTEX
  5
7B7
  8
MAKE2D$VISIBLE$CURVES
 10
272.96836081173
 20
284.3715277273997
 30
0.0
  0
VERTEX
  5
7B8
  8
MAKE2D$VISIBLE$CURVES
 10
273.0039387597641
 20
284.4311423066912
 30
0.0
  0
VERTEX
  5
7B9
  8
MAKE2D$VISIBLE$CURVES
 10
273.0415643023341
 20
284.4894861752352
 30
0.0
  0
VERTEX
  5
7BA
  8
MAKE2D$VISIBLE$CURVES
 10
273.0811921035917
 20
284.5464890332144
 30
0.0
  0
VERTEX
  5
7BB
  8
MAKE2D$VISIBLE$CURVES
 10
273.1227744151244
 20
284.6020821966248
 30
0.0
  0
VERTEX
  5
7BC
  8
MAKE2D$VISIBLE$CURVES
 10
273.1662611334847
 20
284.6561986800345
 30
0.0
  0
VERTEX
  5
7BD
  8
MAKE2D$VISIBLE$CURVES
 10
273.2115998605638
 20
284.708773277296
 30
0.0
  0
VERTEX
  5
7BE
  8
MAKE2D$VISIBLE$CURVES
 10
273.2587359667274
 20
284.7597426401144
 30
0.0
  0
VERTEX
  5
7BF
  8
MAKE2D$VISIBLE$CURVES
 10
273.307612656639
 20
284.8090453543774
 30
0.0
  0
VERTEX
  5
7C0
  8
MAKE2D$VISIBLE$CURVES
 10
273.3581710376927
 20
284.8566220141544
 30
0.0
  0
VERTEX
  5
7C1
  8
MAKE2D$VISIBLE$CURVES
 10
273.4103501909792
 20
284.902415293276
 30
0.0
  0
VERTEX
  5
7C2
  8
MAKE2D$VISIBLE$CURVES
 10
273.4640872446814
 20
284.9463700144076
 30
0.0
  0
VERTEX
  5
7C3
  8
MAKE2D$VISIBLE$CURVES
 10
273.519317449836
 20
284.9884332155337
 30
0.0
  0
VERTEX
  5
7C4
  8
MAKE2D$VISIBLE$CURVES
 10
273.5759742583465
 20
285.0285542137731
 30
0.0
  0
VERTEX
  5
7C5
  8
MAKE2D$VISIBLE$CURVES
 10
273.6339894031732
 20
285.0666846664479
 30
0.0
  0
VERTEX
  5
7C6
  8
MAKE2D$VISIBLE$CURVES
 10
273.6932929805832
 20
285.1027786293326
 30
0.0
  0
VERTEX
  5
7C7
  8
MAKE2D$VISIBLE$CURVES
 10
273.7538135343863
 20
285.136792612013
 30
0.0
  0
VERTEX
  5
7C8
  8
MAKE2D$VISIBLE$CURVES
 10
273.8154781420278
 20
285.1686856302894
 30
0.0
  0
VERTEX
  5
7C9
  8
MAKE2D$VISIBLE$CURVES
 10
273.8782125024588
 20
285.1984192555587
 30
0.0
  0
VERTEX
  5
7CA
  8
MAKE2D$VISIBLE$CURVES
 10
273.9419410256612
 20
285.2259576611185
 30
0.0
  0
VERTEX
  5
7CB
  8
MAKE2D$VISIBLE$CURVES
 10
274.0065869237284
 20
285.2512676653349
 30
0.0
  0
VERTEX
  5
7CC
  8
MAKE2D$VISIBLE$CURVES
 10
274.0720723033889
 20
285.2743187716241
 30
0.0
  0
VERTEX
  5
7CD
  8
MAKE2D$VISIBLE$CURVES
 10
274.138318259859
 20
285.2950832051984
 30
0.0
  0
VERTEX
  5
7CE
  8
MAKE2D$VISIBLE$CURVES
 10
274.2052449719228
 20
285.3135359465328
 30
0.0
  0
VERTEX
  5
7CF
  8
MAKE2D$VISIBLE$CURVES
 10
274.272771798104
 20
285.329654761511
 30
0.0
  0
VERTEX
  5
7D0
  8
MAKE2D$VISIBLE$CURVES
 10
274.3408173738359
 20
285.3434202282166
 30
0.0
  0
VERTEX
  5
7D1
  8
MAKE2D$VISIBLE$CURVES
 10
274.409299709501
 20
285.3548157603342
 30
0.0
  0
VERTEX
  5
7D2
  8
MAKE2D$VISIBLE$CURVES
 10
274.4781362892178
 20
285.3638276271354
 30
0.0
  0
VERTEX
  5
7D3
  8
MAKE2D$VISIBLE$CURVES
 10
274.5472441702702
 20
285.3704449700224
 30
0.0
  0
VERTEX
  5
7D4
  8
MAKE2D$VISIBLE$CURVES
 10
274.6165400830429
 20
285.3746598156125
 30
0.0
  0
VERTEX
  5
7D5
  8
MAKE2D$VISIBLE$CURVES
 10
274.6859405313587
 20
285.3764670853451
 30
0.0
  0
VERTEX
  5
7D6
  8
MAKE2D$VISIBLE$CURVES
 10
274.7553618930839
 20
285.3758646016009
 30
0.0
  0
VERTEX
  5
7D7
  8
MAKE2D$VISIBLE$CURVES
 10
274.8247205208824
 20
285.3728530903257
 30
0.0
  0
VERTEX
  5
7D8
  8
MAKE2D$VISIBLE$CURVES
 10
274.8939328430121
 20
285.3674361801563
 30
0.0
  0
VERTEX
  5
7D9
  8
MAKE2D$VISIBLE$CURVES
 10
274.9629154640149
 20
285.3596203980476
 30
0.0
  0
VERTEX
  5
7DA
  8
MAKE2D$VISIBLE$CURVES
 10
275.0315852652054
 20
285.349415161408
 30
0.0
  0
VERTEX
  5
7DB
  8
MAKE2D$VISIBLE$CURVES
 10
275.099859504821
 20
285.336832766753
 30
0.0
  0
VERTEX
  5
7DC
  8
MAKE2D$VISIBLE$CURVES
 10
275.1676559177219
 20
285.3218883748879
 30
0.0
  0
VERTEX
  5
7DD
  8
MAKE2D$VISIBLE$CURVES
 10
275.234892814509
 20
285.3045999926413
 30
0.0
  0
VERTEX
  5
7DE
  8
MAKE2D$VISIBLE$CURVES
 10
275.3014891799609
 20
285.284988451167
 30
0.0
  0
VERTEX
  5
7DF
  8
MAKE2D$VISIBLE$CURVES
 10
275.3673647706434
 20
285.2630773808449
 30
0.0
  0
VERTEX
  5
7E0
  8
MAKE2D$VISIBLE$CURVES
 10
275.4324402115996
 20
285.2388931828085
 30
0.0
  0
VERTEX
  5
7E1
  8
MAKE2D$VISIBLE$CURVES
 10
275.4966370919935
 20
285.2124649971325
 30
0.0
  0
VERTEX
  5
7E2
  8
MAKE2D$VISIBLE$CURVES
 10
275.5598780595826
 20
285.1838246677221
 30
0.0
  0
VERTEX
  5
7E3
  8
MAKE2D$VISIBLE$CURVES
 10
275.6220869139276
 20
285.153006703944
 30
0.0
  0
VERTEX
  5
7E4
  8
MAKE2D$VISIBLE$CURVES
 10
275.6831886982033
 20
285.1200482390438
 30
0.0
  0
VERTEX
  5
7E5
  8
MAKE2D$VISIBLE$CURVES
 10
275.7431097895221
 20
285.0849889854047
 30
0.0
  0
VERTEX
  5
7E6
  8
MAKE2D$VISIBLE$CURVES
 10
275.8017779876315
 20
285.0478711866968
 30
0.0
  0
VERTEX
  5
7E7
  8
MAKE2D$VISIBLE$CURVES
 10
275.859122601925
 20
285.0087395669765
 30
0.0
  0
VERTEX
  5
7E8
  8
MAKE2D$VISIBLE$CURVES
 10
275.9150745366075
 20
284.9676412767977
 30
0.0
  0
VERTEX
  5
7E9
  8
MAKE2D$VISIBLE$CURVES
 10
275.9695663739564
 20
284.9246258363989
 30
0.0
  0
VERTEX
  5
7EA
  8
MAKE2D$VISIBLE$CURVES
 10
276.0225324555519
 20
284.8797450760356
 30
0.0
  0
VERTEX
  5
7EB
  8
MAKE2D$VISIBLE$CURVES
 10
276.0739089613914
 20
284.8330530735284
 30
0.0
  0
VERTEX
  5
7EC
  8
MAKE2D$VISIBLE$CURVES
 10
276.1236339867862
 20
284.7846060891034
 30
0.0
  0
VERTEX
  5
7ED
  8
MAKE2D$VISIBLE$CURVES
 10
276.1716476169528
 20
284.7344624976035
 30
0.0
  0
VERTEX
  5
7EE
  8
MAKE2D$VISIBLE$CURVES
 10
276.217891999209
 20
284.6826827181512
 30
0.0
  0
VERTEX
  5
7EF
  8
MAKE2D$VISIBLE$CURVES
 10
276.2623114126752
 20
284.6293291413473
 30
0.0
  0
VERTEX
  5
7F0
  8
MAKE2D$VISIBLE$CURVES
 10
276.3048523354161
 20
284.5744660540965
 30
0.0
  0
VERTEX
  5
7F1
  8
MAKE2D$VISIBLE$CURVES
 10
276.3454635089344
 20
284.5181595621458
 30
0.0
  0
VERTEX
  5
7F2
  8
MAKE2D$VISIBLE$CURVES
 10
276.3840959999295
 20
284.4604775104323
 30
0.0
  0
VERTEX
  5
7F3
  8
MAKE2D$VISIBLE$CURVES
 10
276.4207032592591
 20
284.4014894013358
 30
0.0
  0
VERTEX
  5
7F4
  8
MAKE2D$VISIBLE$CURVES
 10
276.4552411780257
 20
284.3412663109331
 30
0.0
  0
VERTEX
  5
7F5
  8
MAKE2D$VISIBLE$CURVES
 10
276.4876681407274
 20
284.2798808033578
 30
0.0
  0
VERTEX
  5
7F6
  8
MAKE2D$VISIBLE$CURVES
 10
276.517945075401
 20
284.2174068433652
 30
0.0
  0
VERTEX
  5
7F7
  8
MAKE2D$VISIBLE$CURVES
 10
276.5460355006969
 20
284.1539197072111
 30
0.0
  0
VERTEX
  5
7F8
  8
MAKE2D$VISIBLE$CURVES
 10
276.5719055698416
 20
284.0894958919499
 30
0.0
  0
VERTEX
  5
7F9
  8
MAKE2D$VISIBLE$CURVES
 10
276.5955241114168
 20
284.024213023261
 30
0.0
  0
VERTEX
  5
7FA
  8
MAKE2D$VISIBLE$CURVES
 10
276.6168626669184
 20
283.9581497619164
 30
0.0
  0
VERTEX
  5
7FB
  8
MAKE2D$VISIBLE$CURVES
 10
276.6358955250504
 20
283.891385709001
 30
0.0
  0
VERTEX
  5
7FC
  8
MAKE2D$VISIBLE$CURVES
 10
276.6525997526994
 20
283.824001309998
 30
0.0
  0
VERTEX
  5
7FD
  8
MAKE2D$VISIBLE$CURVES
 10
276.6669552225737
 20
283.7560777578599
 30
0.0
  0
VERTEX
  5
7FE
  8
MAKE2D$VISIBLE$CURVES
 10
276.6789446374493
 20
283.6876968951766
 30
0.0
  0
VERTEX
  5
7FF
  8
MAKE2D$VISIBLE$CURVES
 10
276.688553551017
 20
283.6189411155619
 30
0.0
  0
VERTEX
  5
800
  8
MAKE2D$VISIBLE$CURVES
 10
276.6957703852819
 20
283.5498932643746
 30
0.0
  0
VERTEX
  5
801
  8
MAKE2D$VISIBLE$CURVES
 10
276.7005864445215
 20
283.4806365388979
 30
0.0
  0
VERTEX
  5
802
  8
MAKE2D$VISIBLE$CURVES
 10
276.7029959257604
 20
283.4112543880914
 30
0.0
  0
VERTEX
  5
803
  8
MAKE2D$VISIBLE$CURVES
 10
276.7029959257604
 20
283.341830412043
 30
0.0
  0
VERTEX
  5
804
  8
MAKE2D$VISIBLE$CURVES
 10
276.7005864445215
 20
283.2724482612365
 30
0.0
  0
VERTEX
  5
805
  8
MAKE2D$VISIBLE$CURVES
 10
276.6957703852819
 20
283.2031915357598
 30
0.0
  0
VERTEX
  5
806
  8
MAKE2D$VISIBLE$CURVES
 10
276.688553551017
 20
283.1341436845726
 30
0.0
  0
VERTEX
  5
807
  8
MAKE2D$VISIBLE$CURVES
 10
276.6789446374493
 20
283.0653879049578
 30
0.0
  0
VERTEX
  5
808
  8
MAKE2D$VISIBLE$CURVES
 10
276.6669552225737
 20
282.9970070422746
 30
0.0
  0
VERTEX
  5
809
  8
MAKE2D$VISIBLE$CURVES
 10
276.6525997526994
 20
282.9290834901365
 30
0.0
  0
VERTEX
  5
80A
  8
MAKE2D$VISIBLE$CURVES
 10
276.6358955250504
 20
282.8616990911335
 30
0.0
  0
VERTEX
  5
80B
  8
MAKE2D$VISIBLE$CURVES
 10
276.6168626669184
 20
282.7949350382179
 30
0.0
  0
VERTEX
  5
80C
  8
MAKE2D$VISIBLE$CURVES
 10
276.5955241114168
 20
282.7288717768733
 30
0.0
  0
VERTEX
  5
80D
  8
MAKE2D$VISIBLE$CURVES
 10
276.5719055698416
 20
282.6635889081845
 30
0.0
  0
VERTEX
  5
80E
  8
MAKE2D$VISIBLE$CURVES
 10
276.5460355006969
 20
282.5991650929233
 30
0.0
  0
VERTEX
  5
80F
  8
MAKE2D$VISIBLE$CURVES
 10
276.517945075401
 20
282.5356779567693
 30
0.0
  0
VERTEX
  5
810
  8
MAKE2D$VISIBLE$CURVES
 10
276.4876681407274
 20
282.4732039967766
 30
0.0
  0
VERTEX
  5
811
  8
MAKE2D$VISIBLE$CURVES
 10
276.4552411780257
 20
282.4118184892013
 30
0.0
  0
VERTEX
  5
812
  8
MAKE2D$VISIBLE$CURVES
 10
276.4207032592591
 20
282.3515953987986
 30
0.0
  0
VERTEX
  5
813
  8
MAKE2D$VISIBLE$CURVES
 10
276.3840959999295
 20
282.2926072897021
 30
0.0
  0
VERTEX
  5
814
  8
MAKE2D$VISIBLE$CURVES
 10
276.3454635089344
 20
282.2349252379886
 30
0.0
  0
VERTEX
  5
815
  8
MAKE2D$VISIBLE$CURVES
 10
276.3048523354161
 20
282.1786187460379
 30
0.0
  0
VERTEX
  5
816
  8
MAKE2D$VISIBLE$CURVES
 10
276.2623114126752
 20
282.123755658787
 30
0.0
  0
VERTEX
  5
817
  8
MAKE2D$VISIBLE$CURVES
 10
276.217891999209
 20
282.0704020819832
 30
0.0
  0
VERTEX
  5
818
  8
MAKE2D$VISIBLE$CURVES
 10
276.1716476169528
 20
282.0186223025308
 30
0.0
  0
VERTEX
  5
819
  8
MAKE2D$VISIBLE$CURVES
 10
276.1236339867862
 20
281.968478711031
 30
0.0
  0
VERTEX
  5
81A
  8
MAKE2D$VISIBLE$CURVES
 10
276.0739089613914
 20
281.920031726606
 30
0.0
  0
VERTEX
  5
81B
  8
MAKE2D$VISIBLE$CURVES
 10
276.0225324555519
 20
281.8733397240988
 30
0.0
  0
VERTEX
  5
81C
  8
MAKE2D$VISIBLE$CURVES
 10
275.9695663739564
 20
281.8284589637355
 30
0.0
  0
VERTEX
  5
81D
  8
MAKE2D$VISIBLE$CURVES
 10
275.9150745366075
 20
281.7854435233367
 30
0.0
  0
VERTEX
  5
81E
  8
MAKE2D$VISIBLE$CURVES
 10
275.859122601925
 20
281.7443452331578
 30
0.0
  0
VERTEX
  5
81F
  8
MAKE2D$VISIBLE$CURVES
 10
275.8017779876315
 20
281.7052136134376
 30
0.0
  0
VERTEX
  5
820
  8
MAKE2D$VISIBLE$CURVES
 10
275.7431097895221
 20
281.6680958147298
 30
0.0
  0
VERTEX
  5
821
  8
MAKE2D$VISIBLE$CURVES
 10
275.6831886982033
 20
281.6330365610908
 30
0.0
  0
VERTEX
  5
822
  8
MAKE2D$VISIBLE$CURVES
 10
275.6220869139276
 20
281.6000780961906
 30
0.0
  0
VERTEX
  5
823
  8
MAKE2D$VISIBLE$CURVES
 10
275.5598780595826
 20
281.5692601324123
 30
0.0
  0
VERTEX
  5
824
  8
MAKE2D$VISIBLE$CURVES
 10
275.4966370919935
 20
281.5406198030021
 30
0.0
  0
VERTEX
  5
825
  8
MAKE2D$VISIBLE$CURVES
 10
275.4324402115996
 20
281.514191617326
 30
0.0
  0
VERTEX
  5
826
  8
MAKE2D$VISIBLE$CURVES
 10
275.3673647706434
 20
281.4900074192896
 30
0.0
  0
VERTEX
  5
827
  8
MAKE2D$VISIBLE$CURVES
 10
275.3014891799609
 20
281.4680963489675
 30
0.0
  0
VERTEX
  5
828
  8
MAKE2D$VISIBLE$CURVES
 10
275.234892814509
 20
281.4484848074933
 30
0.0
  0
VERTEX
  5
829
  8
MAKE2D$VISIBLE$CURVES
 10
275.1676559177219
 20
281.4311964252466
 30
0.0
  0
VERTEX
  5
82A
  8
MAKE2D$VISIBLE$CURVES
 10
275.099859504821
 20
281.4162520333816
 30
0.0
  0
VERTEX
  5
82B
  8
MAKE2D$VISIBLE$CURVES
 10
275.0315852652054
 20
281.4036696387265
 30
0.0
  0
VERTEX
  5
82C
  8
MAKE2D$VISIBLE$CURVES
 10
274.9629154640149
 20
281.393464402087
 30
0.0
  0
VERTEX
  5
82D
  8
MAKE2D$VISIBLE$CURVES
 10
274.8939328430121
 20
281.3856486199782
 30
0.0
  0
VERTEX
  5
82E
  8
MAKE2D$VISIBLE$CURVES
 10
274.8247205208824
 20
281.3802317098088
 30
0.0
  0
VERTEX
  5
82F
  8
MAKE2D$VISIBLE$CURVES
 10
274.7553618930839
 20
281.3772201985337
 30
0.0
  0
VERTEX
  5
830
  8
MAKE2D$VISIBLE$CURVES
 10
274.6859405313587
 20
281.3766177147895
 30
0.0
  0
VERTEX
  5
831
  8
MAKE2D$VISIBLE$CURVES
 10
274.6165400830429
 20
281.3784249845221
 30
0.0
  0
VERTEX
  5
832
  8
MAKE2D$VISIBLE$CURVES
 10
274.5472441702702
 20
281.3826398301121
 30
0.0
  0
VERTEX
  5
833
  8
MAKE2D$VISIBLE$CURVES
 10
274.4781362892178
 20
281.3892571729992
 30
0.0
  0
VERTEX
  5
834
  8
MAKE2D$VISIBLE$CURVES
 10
274.409299709501
 20
281.3982690398003
 30
0.0
  0
VERTEX
  5
835
  8
MAKE2D$VISIBLE$CURVES
 10
274.3408173738359
 20
281.409664571918
 30
0.0
  0
VERTEX
  5
836
  8
MAKE2D$VISIBLE$CURVES
 10
274.272771798104
 20
281.4234300386235
 30
0.0
  0
VERTEX
  5
837
  8
MAKE2D$VISIBLE$CURVES
 10
274.2052449719228
 20
281.4395488536018
 30
0.0
  0
VERTEX
  5
838
  8
MAKE2D$VISIBLE$CURVES
 10
274.138318259859
 20
281.4580015949361
 30
0.0
  0
VERTEX
  5
839
  8
MAKE2D$VISIBLE$CURVES
 10
274.0720723033889
 20
281.4787660285104
 30
0.0
  0
VERTEX
  5
83A
  8
MAKE2D$VISIBLE$CURVES
 10
274.0065869237284
 20
281.5018171347997
 30
0.0
  0
VERTEX
  5
83B
  8
MAKE2D$VISIBLE$CURVES
 10
273.9419410256612
 20
281.527127139016
 30
0.0
  0
VERTEX
  5
83C
  8
MAKE2D$VISIBLE$CURVES
 10
273.8782125024588
 20
281.5546655445758
 30
0.0
  0
VERTEX
  5
83D
  8
MAKE2D$VISIBLE$CURVES
 10
273.8154781420278
 20
281.5843991698452
 30
0.0
  0
VERTEX
  5
83E
  8
MAKE2D$VISIBLE$CURVES
 10
273.7538135343863
 20
281.6162921881215
 30
0.0
  0
VERTEX
  5
83F
  8
MAKE2D$VISIBLE$CURVES
 10
273.6932929805832
 20
281.6503061708021
 30
0.0
  0
VERTEX
  5
840
  8
MAKE2D$VISIBLE$CURVES
 10
273.6339894031732
 20
281.6864001336868
 30
0.0
  0
VERTEX
  5
841
  8
MAKE2D$VISIBLE$CURVES
 10
273.5759742583465
 20
281.7245305863616
 30
0.0
  0
VERTEX
  5
842
  8
MAKE2D$VISIBLE$CURVES
 10
273.519317449836
 20
281.764651584601
 30
0.0
  0
VERTEX
  5
843
  8
MAKE2D$VISIBLE$CURVES
 10
273.4640872446814
 20
281.8067147857271
 30
0.0
  0
VERTEX
  5
844
  8
MAKE2D$VISIBLE$CURVES
 10
273.4103501909792
 20
281.8506695068587
 30
0.0
  0
VERTEX
  5
845
  8
MAKE2D$VISIBLE$CURVES
 10
273.3581710376927
 20
281.8964627859802
 30
0.0
  0
VERTEX
  5
846
  8
MAKE2D$VISIBLE$CURVES
 10
273.307612656639
 20
281.9440394457573
 30
0.0
  0
VERTEX
  5
847
  8
MAKE2D$VISIBLE$CURVES
 10
273.2587359667274
 20
281.9933421600203
 30
0.0
  0
VERTEX
  5
848
  8
MAKE2D$VISIBLE$CURVES
 10
273.2115998605638
 20
282.0443115228387
 30
0.0
  0
VERTEX
  5
849
  8
MAKE2D$VISIBLE$CURVES
 10
273.1662611334847
 20
282.0968861201001
 30
0.0
  0
VERTEX
  5
84A
  8
MAKE2D$VISIBLE$CURVES
 10
273.1227744151244
 20
282.1510026035098
 30
0.0
  0
VERTEX
  5
84B
  8
MAKE2D$VISIBLE$CURVES
 10
273.0811921035917
 20
282.2065957669201
 30
0.0
  0
VERTEX
  5
84C
  8
MAKE2D$VISIBLE$CURVES
 10
273.0415643023341
 20
282.2635986248995
 30
0.0
  0
VERTEX
  5
84D
  8
MAKE2D$VISIBLE$CURVES
 10
273.0039387597641
 20
282.3219424934435
 30
0.0
  0
VERTEX
  5
84E
  8
MAKE2D$VISIBLE$CURVES
 10
272.96836081173
 20
282.3815570727349
 30
0.0
  0
VERTEX
  5
84F
  8
MAKE2D$VISIBLE$CURVES
 10
272.9348733268895
 20
282.442370531849
 30
0.0
  0
VERTEX
  5
850
  8
MAKE2D$VISIBLE$CURVES
 10
272.9035166550527
 20
282.5043095953041
 30
0.0
  0
VERTEX
  5
851
  8
MAKE2D$VISIBLE$CURVES
 10
272.8743285785674
 20
282.5672996313529
 30
0.0
  0
VERTEX
  5
852
  8
MAKE2D$VISIBLE$CURVES
 10
272.8473442667916
 20
282.6312647419082
 30
0.0
  0
VERTEX
  5
853
  8
MAKE2D$VISIBLE$CURVES
 10
272.8225962337189
 20
282.6961278539937
 30
0.0
  0
VERTEX
  5
854
  8
MAKE2D$VISIBLE$CURVES
 10
272.800114298803
 20
282.7618108126118
 30
0.0
  0
VERTEX
  5
855
  8
MAKE2D$VISIBLE$CURVES
 10
272.7799255510242
 20
282.8282344749128
 30
0.0
  0
VERTEX
  5
856
  8
MAKE2D$VISIBLE$CURVES
 10
272.7620543162499
 20
282.8953188055573
 30
0.0
  0
VERTEX
  5
857
  8
MAKE2D$VISIBLE$CURVES
 10
272.7465221279269
 20
282.9629829731519
 30
0.0
  0
VERTEX
  5
858
  8
MAKE2D$VISIBLE$CURVES
 10
272.7333477011313
 20
283.0311454476449
 30
0.0
  0
VERTEX
  5
859
  8
MAKE2D$VISIBLE$CURVES
 10
272.7225469100246
 20
283.0997240985634
 30
0.0
  0
VERTEX
  5
85A
  8
MAKE2D$VISIBLE$CURVES
 10
272.7141327687156
 20
283.1686362939747
 30
0.0
  0
VERTEX
  5
85B
  8
MAKE2D$VISIBLE$CURVES
 10
272.7081154155891
 20
283.2377990000505
 30
0.0
  0
VERTEX
  5
85C
  8
MAKE2D$VISIBLE$CURVES
 10
272.7045021010887
 20
283.307128881117
 30
0.0
  0
SEQEND
  5
A8B
  8
MAKE2D$VISIBLE$CURVES
  0
POLYLINE
  5
7B
  8
MAKE2D$VISIBLE$CURVES
 66
     1
 10
0.0
 20
0.0
 30
0.0
 70
     1
  0
VERTEX
  5
85D
  8
MAKE2D$VISIBLE$CURVES
 10
472.8386108264164
 20
283.3765424000664
 30
0.0
  0
VERTEX
  5
85E
  8
MAKE2D$VISIBLE$CURVES
 10
472.8398157485287
 20
283.4459559190168
 30
0.0
  0
VERTEX
  5
85F
  8
MAKE2D$VISIBLE$CURVES
 10
472.8434290630291
 20
283.5152858000833
 30
0.0
  0
VERTEX
  5
860
  8
MAKE2D$VISIBLE$CURVES
 10
472.8494464161556
 20
283.584448506159
 30
0.0
  0
VERTEX
  5
861
  8
MAKE2D$VISIBLE$CURVES
 10
472.8578605574646
 20
283.6533607015703
 30
0.0
  0
VERTEX
  5
862
  8
MAKE2D$VISIBLE$CURVES
 10
472.8686613485722
 20
283.7219393524888
 30
0.0
  0
VERTEX
  5
863
  8
MAKE2D$VISIBLE$CURVES
 10
472.8818357753668
 20
283.7901018269819
 30
0.0
  0
VERTEX
  5
864
  8
MAKE2D$VISIBLE$CURVES
 10
472.8973679636899
 20
283.8577659945765
 30
0.0
  0
VERTEX
  5
865
  8
MAKE2D$VISIBLE$CURVES
 10
472.9152391984641
 20
283.924850325221
 30
0.0
  0
VERTEX
  5
866
  8
MAKE2D$VISIBLE$CURVES
 10
472.9354279462429
 20
283.991273987522
 30
0.0
  0
VERTEX
  5
867
  8
MAKE2D$VISIBLE$CURVES
 10
472.9579098811589
 20
284.0569569461398
 30
0.0
  0
VERTEX
  5
868
  8
MAKE2D$VISIBLE$CURVES
 10
472.9826579142315
 20
284.1218200582256
 30
0.0
  0
VERTEX
  5
869
  8
MAKE2D$VISIBLE$CURVES
 10
473.0096422260073
 20
284.1857851687809
 30
0.0
  0
VERTEX
  5
86A
  8
MAKE2D$VISIBLE$CURVES
 10
473.0388303024926
 20
284.2487752048297
 30
0.0
  0
VERTEX
  5
86B
  8
MAKE2D$VISIBLE$CURVES
 10
473.0701869743295
 20
284.3107142682848
 30
0.0
  0
VERTEX
  5
86C
  8
MAKE2D$VISIBLE$CURVES
 10
473.1036744591699
 20
284.3715277273988
 30
0.0
  0
VERTEX
  5
86D
  8
MAKE2D$VISIBLE$CURVES
 10
473.1392524072041
 20
284.4311423066903
 30
0.0
  0
VERTEX
  5
86E
  8
MAKE2D$VISIBLE$CURVES
 10
473.176877949774
 20
284.4894861752344
 30
0.0
  0
VERTEX
  5
86F
  8
MAKE2D$VISIBLE$CURVES
 10
473.2165057510317
 20
284.5464890332136
 30
0.0
  0
VERTEX
  5
870
  8
MAKE2D$VISIBLE$CURVES
 10
473.2580880625644
 20
284.6020821966241
 30
0.0
  0
VERTEX
  5
871
  8
MAKE2D$VISIBLE$CURVES
 10
473.3015747809247
 20
284.6561986800338
 30
0.0
  0
VERTEX
  5
872
  8
MAKE2D$VISIBLE$CURVES
 10
473.3469135080038
 20
284.7087732772952
 30
0.0
  0
VERTEX
  5
873
  8
MAKE2D$VISIBLE$CURVES
 10
473.3940496141674
 20
284.7597426401136
 30
0.0
  0
VERTEX
  5
874
  8
MAKE2D$VISIBLE$CURVES
 10
473.442926304079
 20
284.8090453543766
 30
0.0
  0
VERTEX
  5
875
  8
MAKE2D$VISIBLE$CURVES
 10
473.4934846851326
 20
284.8566220141537
 30
0.0
  0
VERTEX
  5
876
  8
MAKE2D$VISIBLE$CURVES
 10
473.5456638384191
 20
284.9024152932753
 30
0.0
  0
VERTEX
  5
877
  8
MAKE2D$VISIBLE$CURVES
 10
473.5994008921213
 20
284.9463700144068
 30
0.0
  0
VERTEX
  5
878
  8
MAKE2D$VISIBLE$CURVES
 10
473.654631097276
 20
284.9884332155329
 30
0.0
  0
VERTEX
  5
879
  8
MAKE2D$VISIBLE$CURVES
 10
473.7112879057865
 20
285.0285542137724
 30
0.0
  0
VERTEX
  5
87A
  8
MAKE2D$VISIBLE$CURVES
 10
473.7693030506131
 20
285.0666846664471
 30
0.0
  0
VERTEX
  5
87B
  8
MAKE2D$VISIBLE$CURVES
 10
473.8286066280231
 20
285.1027786293319
 30
0.0
  0
VERTEX
  5
87C
  8
MAKE2D$VISIBLE$CURVES
 10
473.8891271818272
 20
285.1367926120124
 30
0.0
  0
VERTEX
  5
87D
  8
MAKE2D$VISIBLE$CURVES
 10
473.9507917894677
 20
285.1686856302888
 30
0.0
  0
VERTEX
  5
87E
  8
MAKE2D$VISIBLE$CURVES
 10
474.0135261498987
 20
285.1984192555582
 30
0.0
  0
VERTEX
  5
87F
  8
MAKE2D$VISIBLE$CURVES
 10
474.0772546731011
 20
285.2259576611179
 30
0.0
  0
VERTEX
  5
880
  8
MAKE2D$VISIBLE$CURVES
 10
474.1419005711684
 20
285.2512676653343
 30
0.0
  0
VERTEX
  5
881
  8
MAKE2D$VISIBLE$CURVES
 10
474.2073859508288
 20
285.2743187716235
 30
0.0
  0
VERTEX
  5
882
  8
MAKE2D$VISIBLE$CURVES
 10
474.2736319072989
 20
285.2950832051979
 30
0.0
  0
VERTEX
  5
883
  8
MAKE2D$VISIBLE$CURVES
 10
474.3405586193628
 20
285.3135359465323
 30
0.0
  0
VERTEX
  5
884
  8
MAKE2D$VISIBLE$CURVES
 10
474.4080854455439
 20
285.3296547615105
 30
0.0
  0
VERTEX
  5
885
  8
MAKE2D$VISIBLE$CURVES
 10
474.4761310212759
 20
285.3434202282161
 30
0.0
  0
VERTEX
  5
886
  8
MAKE2D$VISIBLE$CURVES
 10
474.5446133569409
 20
285.3548157603338
 30
0.0
  0
VERTEX
  5
887
  8
MAKE2D$VISIBLE$CURVES
 10
474.6134499366578
 20
285.363827627135
 30
0.0
  0
VERTEX
  5
888
  8
MAKE2D$VISIBLE$CURVES
 10
474.6825578177101
 20
285.370444970022
 30
0.0
  0
VERTEX
  5
889
  8
MAKE2D$VISIBLE$CURVES
 10
474.7518537304829
 20
285.3746598156121
 30
0.0
  0
VERTEX
  5
88A
  8
MAKE2D$VISIBLE$CURVES
 10
474.8212541787986
 20
285.3764670853447
 30
0.0
  0
VERTEX
  5
88B
  8
MAKE2D$VISIBLE$CURVES
 10
474.8906755405239
 20
285.3758646016005
 30
0.0
  0
VERTEX
  5
88C
  8
MAKE2D$VISIBLE$CURVES
 10
474.9600341683224
 20
285.3728530903253
 30
0.0
  0
VERTEX
  5
88D
  8
MAKE2D$VISIBLE$CURVES
 10
475.0292464904521
 20
285.3674361801559
 30
0.0
  0
VERTEX
  5
88E
  8
MAKE2D$VISIBLE$CURVES
 10
475.0982291114548
 20
285.3596203980472
 30
0.0
  0
VERTEX
  5
88F
  8
MAKE2D$VISIBLE$CURVES
 10
475.1668989126453
 20
285.3494151614076
 30
0.0
  0
VERTEX
  5
890
  8
MAKE2D$VISIBLE$CURVES
 10
475.235173152261
 20
285.3368327667527
 30
0.0
  0
VERTEX
  5
891
  8
MAKE2D$VISIBLE$CURVES
 10
475.3029695651618
 20
285.3218883748877
 30
0.0
  0
VERTEX
  5
892
  8
MAKE2D$VISIBLE$CURVES
 10
475.370206461949
 20
285.304599992641
 30
0.0
  0
VERTEX
  5
893
  8
MAKE2D$VISIBLE$CURVES
 10
475.4368028274009
 20
285.2849884511667
 30
0.0
  0
VERTEX
  5
894
  8
MAKE2D$VISIBLE$CURVES
 10
475.5026784180833
 20
285.2630773808447
 30
0.0
  0
VERTEX
  5
895
  8
MAKE2D$VISIBLE$CURVES
 10
475.5677538590396
 20
285.2388931828083
 30
0.0
  0
VERTEX
  5
896
  8
MAKE2D$VISIBLE$CURVES
 10
475.6319507394334
 20
285.2124649971321
 30
0.0
  0
VERTEX
  5
897
  8
MAKE2D$VISIBLE$CURVES
 10
475.6951917070225
 20
285.183824667722
 30
0.0
  0
VERTEX
  5
898
  8
MAKE2D$VISIBLE$CURVES
 10
475.7574005613675
 20
285.1530067039438
 30
0.0
  0
VERTEX
  5
899
  8
MAKE2D$VISIBLE$CURVES
 10
475.8185023456442
 20
285.1200482390436
 30
0.0
  0
VERTEX
  5
89A
  8
MAKE2D$VISIBLE$CURVES
 10
475.878423436962
 20
285.0849889854046
 30
0.0
  0
VERTEX
  5
89B
  8
MAKE2D$VISIBLE$CURVES
 10
475.9370916350715
 20
285.0478711866967
 30
0.0
  0
VERTEX
  5
89C
  8
MAKE2D$VISIBLE$CURVES
 10
475.9944362493649
 20
285.0087395669765
 30
0.0
  0
VERTEX
  5
89D
  8
MAKE2D$VISIBLE$CURVES
 10
476.0503881840474
 20
284.9676412767976
 30
0.0
  0
VERTEX
  5
89E
  8
MAKE2D$VISIBLE$CURVES
 10
476.1048800213964
 20
284.9246258363989
 30
0.0
  0
VERTEX
  5
89F
  8
MAKE2D$VISIBLE$CURVES
 10
476.1578461029919
 20
284.8797450760356
 30
0.0
  0
VERTEX
  5
8A0
  8
MAKE2D$VISIBLE$CURVES
 10
476.2092226088313
 20
284.8330530735284
 30
0.0
  0
VERTEX
  5
8A1
  8
MAKE2D$VISIBLE$CURVES
 10
476.2589476342252
 20
284.7846060891034
 30
0.0
  0
VERTEX
  5
8A2
  8
MAKE2D$VISIBLE$CURVES
 10
476.3069612643928
 20
284.7344624976035
 30
0.0
  0
VERTEX
  5
8A3
  8
MAKE2D$VISIBLE$CURVES
 10
476.353205646649
 20
284.6826827181512
 30
0.0
  0
VERTEX
  5
8A4
  8
MAKE2D$VISIBLE$CURVES
 10
476.3976250601142
 20
284.6293291413473
 30
0.0
  0
VERTEX
  5
8A5
  8
MAKE2D$VISIBLE$CURVES
 10
476.4401659828561
 20
284.5744660540965
 30
0.0
  0
VERTEX
  5
8A6
  8
MAKE2D$VISIBLE$CURVES
 10
476.4807771563744
 20
284.5181595621458
 30
0.0
  0
VERTEX
  5
8A7
  8
MAKE2D$VISIBLE$CURVES
 10
476.5194096473694
 20
284.4604775104324
 30
0.0
  0
VERTEX
  5
8A8
  8
MAKE2D$VISIBLE$CURVES
 10
476.5560169066991
 20
284.4014894013359
 30
0.0
  0
VERTEX
  5
8A9
  8
MAKE2D$VISIBLE$CURVES
 10
476.5905548254656
 20
284.3412663109332
 30
0.0
  0
VERTEX
  5
8AA
  8
MAKE2D$VISIBLE$CURVES
 10
476.6229817881674
 20
284.2798808033579
 30
0.0
  0
VERTEX
  5
8AB
  8
MAKE2D$VISIBLE$CURVES
 10
476.6532587228409
 20
284.2174068433652
 30
0.0
  0
VERTEX
  5
8AC
  8
MAKE2D$VISIBLE$CURVES
 10
476.6813491481368
 20
284.1539197072112
 30
0.0
  0
VERTEX
  5
8AD
  8
MAKE2D$VISIBLE$CURVES
 10
476.7072192172815
 20
284.08949589195
 30
0.0
  0
VERTEX
  5
8AE
  8
MAKE2D$VISIBLE$CURVES
 10
476.7308377588567
 20
284.0242130232611
 30
0.0
  0
VERTEX
  5
8AF
  8
MAKE2D$VISIBLE$CURVES
 10
476.7521763143583
 20
283.9581497619166
 30
0.0
  0
VERTEX
  5
8B0
  8
MAKE2D$VISIBLE$CURVES
 10
476.7712091724904
 20
283.8913857090011
 30
0.0
  0
VERTEX
  5
8B1
  8
MAKE2D$VISIBLE$CURVES
 10
476.7879134001393
 20
283.8240013099981
 30
0.0
  0
VERTEX
  5
8B2
  8
MAKE2D$VISIBLE$CURVES
 10
476.8022688700136
 20
283.75607775786
 30
0.0
  0
VERTEX
  5
8B3
  8
MAKE2D$VISIBLE$CURVES
 10
476.8142582848902
 20
283.6876968951767
 30
0.0
  0
VERTEX
  5
8B4
  8
MAKE2D$VISIBLE$CURVES
 10
476.823867198457
 20
283.618941115562
 30
0.0
  0
VERTEX
  5
8B5
  8
MAKE2D$VISIBLE$CURVES
 10
476.8310840327219
 20
283.5498932643748
 30
0.0
  0
VERTEX
  5
8B6
  8
MAKE2D$VISIBLE$CURVES
 10
476.8359000919615
 20
283.480636538898
 30
0.0
  0
VERTEX
  5
8B7
  8
MAKE2D$VISIBLE$CURVES
 10
476.8383095732003
 20
283.4112543880915
 30
0.0
  0
VERTEX
  5
8B8
  8
MAKE2D$VISIBLE$CURVES
 10
476.8383095732003
 20
283.3418304120432
 30
0.0
  0
VERTEX
  5
8B9
  8
MAKE2D$VISIBLE$CURVES
 10
476.8359000919615
 20
283.2724482612367
 30
0.0
  0
VERTEX
  5
8BA
  8
MAKE2D$VISIBLE$CURVES
 10
476.8310840327219
 20
283.2031915357599
 30
0.0
  0
VERTEX
  5
8BB
  8
MAKE2D$VISIBLE$CURVES
 10
476.823867198457
 20
283.1341436845727
 30
0.0
  0
VERTEX
  5
8BC
  8
MAKE2D$VISIBLE$CURVES
 10
476.8142582848902
 20
283.0653879049578
 30
0.0
  0
VERTEX
  5
8BD
  8
MAKE2D$VISIBLE$CURVES
 10
476.8022688700136
 20
282.9970070422747
 30
0.0
  0
VERTEX
  5
8BE
  8
MAKE2D$VISIBLE$CURVES
 10
476.7879134001393
 20
282.9290834901366
 30
0.0
  0
VERTEX
  5
8BF
  8
MAKE2D$VISIBLE$CURVES
 10
476.7712091724904
 20
282.8616990911336
 30
0.0
  0
VERTEX
  5
8C0
  8
MAKE2D$VISIBLE$CURVES
 10
476.7521763143583
 20
282.794935038218
 30
0.0
  0
VERTEX
  5
8C1
  8
MAKE2D$VISIBLE$CURVES
 10
476.7308377588567
 20
282.7288717768735
 30
0.0
  0
VERTEX
  5
8C2
  8
MAKE2D$VISIBLE$CURVES
 10
476.7072192172815
 20
282.6635889081846
 30
0.0
  0
VERTEX
  5
8C3
  8
MAKE2D$VISIBLE$CURVES
 10
476.6813491481368
 20
282.5991650929234
 30
0.0
  0
VERTEX
  5
8C4
  8
MAKE2D$VISIBLE$CURVES
 10
476.6532587228409
 20
282.5356779567693
 30
0.0
  0
VERTEX
  5
8C5
  8
MAKE2D$VISIBLE$CURVES
 10
476.6229817881674
 20
282.4732039967766
 30
0.0
  0
VERTEX
  5
8C6
  8
MAKE2D$VISIBLE$CURVES
 10
476.5905548254656
 20
282.4118184892014
 30
0.0
  0
VERTEX
  5
8C7
  8
MAKE2D$VISIBLE$CURVES
 10
476.5560169066991
 20
282.3515953987987
 30
0.0
  0
VERTEX
  5
8C8
  8
MAKE2D$VISIBLE$CURVES
 10
476.5194096473694
 20
282.2926072897022
 30
0.0
  0
VERTEX
  5
8C9
  8
MAKE2D$VISIBLE$CURVES
 10
476.4807771563744
 20
282.2349252379886
 30
0.0
  0
VERTEX
  5
8CA
  8
MAKE2D$VISIBLE$CURVES
 10
476.4401659828561
 20
282.1786187460379
 30
0.0
  0
VERTEX
  5
8CB
  8
MAKE2D$VISIBLE$CURVES
 10
476.3976250601142
 20
282.123755658787
 30
0.0
  0
VERTEX
  5
8CC
  8
MAKE2D$VISIBLE$CURVES
 10
476.353205646649
 20
282.0704020819832
 30
0.0
  0
VERTEX
  5
8CD
  8
MAKE2D$VISIBLE$CURVES
 10
476.3069612643928
 20
282.0186223025308
 30
0.0
  0
VERTEX
  5
8CE
  8
MAKE2D$VISIBLE$CURVES
 10
476.2589476342252
 20
281.968478711031
 30
0.0
  0
VERTEX
  5
8CF
  8
MAKE2D$VISIBLE$CURVES
 10
476.2092226088313
 20
281.920031726606
 30
0.0
  0
VERTEX
  5
8D0
  8
MAKE2D$VISIBLE$CURVES
 10
476.1578461029919
 20
281.8733397240987
 30
0.0
  0
VERTEX
  5
8D1
  8
MAKE2D$VISIBLE$CURVES
 10
476.1048800213964
 20
281.8284589637354
 30
0.0
  0
VERTEX
  5
8D2
  8
MAKE2D$VISIBLE$CURVES
 10
476.0503881840474
 20
281.7854435233367
 30
0.0
  0
VERTEX
  5
8D3
  8
MAKE2D$VISIBLE$CURVES
 10
475.9944362493649
 20
281.7443452331578
 30
0.0
  0
VERTEX
  5
8D4
  8
MAKE2D$VISIBLE$CURVES
 10
475.9370916350715
 20
281.7052136134375
 30
0.0
  0
VERTEX
  5
8D5
  8
MAKE2D$VISIBLE$CURVES
 10
475.878423436962
 20
281.6680958147296
 30
0.0
  0
VERTEX
  5
8D6
  8
MAKE2D$VISIBLE$CURVES
 10
475.8185023456442
 20
281.6330365610906
 30
0.0
  0
VERTEX
  5
8D7
  8
MAKE2D$VISIBLE$CURVES
 10
475.7574005613675
 20
281.6000780961904
 30
0.0
  0
VERTEX
  5
8D8
  8
MAKE2D$VISIBLE$CURVES
 10
475.6951917070225
 20
281.5692601324121
 30
0.0
  0
VERTEX
  5
8D9
  8
MAKE2D$VISIBLE$CURVES
 10
475.6319507394334
 20
281.5406198030018
 30
0.0
  0
VERTEX
  5
8DA
  8
MAKE2D$VISIBLE$CURVES
 10
475.5677538590396
 20
281.5141916173258
 30
0.0
  0
VERTEX
  5
8DB
  8
MAKE2D$VISIBLE$CURVES
 10
475.5026784180833
 20
281.4900074192894
 30
0.0
  0
VERTEX
  5
8DC
  8
MAKE2D$VISIBLE$CURVES
 10
475.4368028274009
 20
281.4680963489673
 30
0.0
  0
VERTEX
  5
8DD
  8
MAKE2D$VISIBLE$CURVES
 10
475.370206461949
 20
281.4484848074929
 30
0.0
  0
VERTEX
  5
8DE
  8
MAKE2D$VISIBLE$CURVES
 10
475.3029695651618
 20
281.4311964252463
 30
0.0
  0
VERTEX
  5
8DF
  8
MAKE2D$VISIBLE$CURVES
 10
475.235173152261
 20
281.4162520333813
 30
0.0
  0
VERTEX
  5
8E0
  8
MAKE2D$VISIBLE$CURVES
 10
475.1668989126453
 20
281.4036696387262
 30
0.0
  0
VERTEX
  5
8E1
  8
MAKE2D$VISIBLE$CURVES
 10
475.0982291114548
 20
281.3934644020867
 30
0.0
  0
VERTEX
  5
8E2
  8
MAKE2D$VISIBLE$CURVES
 10
475.0292464904521
 20
281.3856486199778
 30
0.0
  0
VERTEX
  5
8E3
  8
MAKE2D$VISIBLE$CURVES
 10
474.9600341683224
 20
281.3802317098084
 30
0.0
  0
VERTEX
  5
8E4
  8
MAKE2D$VISIBLE$CURVES
 10
474.8906755405239
 20
281.3772201985333
 30
0.0
  0
VERTEX
  5
8E5
  8
MAKE2D$VISIBLE$CURVES
 10
474.8212541787986
 20
281.3766177147891
 30
0.0
  0
VERTEX
  5
8E6
  8
MAKE2D$VISIBLE$CURVES
 10
474.7518537304829
 20
281.3784249845217
 30
0.0
  0
VERTEX
  5
8E7
  8
MAKE2D$VISIBLE$CURVES
 10
474.6825578177101
 20
281.3826398301117
 30
0.0
  0
VERTEX
  5
8E8
  8
MAKE2D$VISIBLE$CURVES
 10
474.6134499366578
 20
281.3892571729987
 30
0.0
  0
VERTEX
  5
8E9
  8
MAKE2D$VISIBLE$CURVES
 10
474.5446133569409
 20
281.3982690397998
 30
0.0
  0
VERTEX
  5
8EA
  8
MAKE2D$VISIBLE$CURVES
 10
474.4761310212759
 20
281.4096645719175
 30
0.0
  0
VERTEX
  5
8EB
  8
MAKE2D$VISIBLE$CURVES
 10
474.4080854455439
 20
281.423430038623
 30
0.0
  0
VERTEX
  5
8EC
  8
MAKE2D$VISIBLE$CURVES
 10
474.3405586193628
 20
281.4395488536013
 30
0.0
  0
VERTEX
  5
8ED
  8
MAKE2D$VISIBLE$CURVES
 10
474.2736319072989
 20
281.4580015949356
 30
0.0
  0
VERTEX
  5
8EE
  8
MAKE2D$VISIBLE$CURVES
 10
474.2073859508288
 20
281.4787660285099
 30
0.0
  0
VERTEX
  5
8EF
  8
MAKE2D$VISIBLE$CURVES
 10
474.1419005711684
 20
281.5018171347991
 30
0.0
  0
VERTEX
  5
8F0
  8
MAKE2D$VISIBLE$CURVES
 10
474.0772546731011
 20
281.5271271390154
 30
0.0
  0
VERTEX
  5
8F1
  8
MAKE2D$VISIBLE$CURVES
 10
474.0135261498987
 20
281.5546655445752
 30
0.0
  0
VERTEX
  5
8F2
  8
MAKE2D$VISIBLE$CURVES
 10
473.9507917894677
 20
281.5843991698445
 30
0.0
  0
VERTEX
  5
8F3
  8
MAKE2D$VISIBLE$CURVES
 10
473.8891271818272
 20
281.6162921881209
 30
0.0
  0
VERTEX
  5
8F4
  8
MAKE2D$VISIBLE$CURVES
 10
473.8286066280231
 20
281.6503061708014
 30
0.0
  0
VERTEX
  5
8F5
  8
MAKE2D$VISIBLE$CURVES
 10
473.7693030506131
 20
281.686400133686
 30
0.0
  0
VERTEX
  5
8F6
  8
MAKE2D$VISIBLE$CURVES
 10
473.7112879057865
 20
281.7245305863608
 30
0.0
  0
VERTEX
  5
8F7
  8
MAKE2D$VISIBLE$CURVES
 10
473.654631097276
 20
281.7646515846002
 30
0.0
  0
VERTEX
  5
8F8
  8
MAKE2D$VISIBLE$CURVES
 10
473.5994008921213
 20
281.8067147857264
 30
0.0
  0
VERTEX
  5
8F9
  8
MAKE2D$VISIBLE$CURVES
 10
473.5456638384191
 20
281.8506695068579
 30
0.0
  0
VERTEX
  5
8FA
  8
MAKE2D$VISIBLE$CURVES
 10
473.4934846851326
 20
281.8964627859795
 30
0.0
  0
VERTEX
  5
8FB
  8
MAKE2D$VISIBLE$CURVES
 10
473.442926304079
 20
281.9440394457565
 30
0.0
  0
VERTEX
  5
8FC
  8
MAKE2D$VISIBLE$CURVES
 10
473.3940496141674
 20
281.9933421600195
 30
0.0
  0
VERTEX
  5
8FD
  8
MAKE2D$VISIBLE$CURVES
 10
473.3469135080038
 20
282.0443115228379
 30
0.0
  0
VERTEX
  5
8FE
  8
MAKE2D$VISIBLE$CURVES
 10
473.3015747809247
 20
282.0968861200993
 30
0.0
  0
VERTEX
  5
8FF
  8
MAKE2D$VISIBLE$CURVES
 10
473.2580880625644
 20
282.151002603509
 30
0.0
  0
VERTEX
  5
900
  8
MAKE2D$VISIBLE$CURVES
 10
473.2165057510317
 20
282.2065957669193
 30
0.0
  0
VERTEX
  5
901
  8
MAKE2D$VISIBLE$CURVES
 10
473.176877949774
 20
282.2635986248986
 30
0.0
  0
VERTEX
  5
902
  8
MAKE2D$VISIBLE$CURVES
 10
473.1392524072041
 20
282.3219424934427
 30
0.0
  0
VERTEX
  5
903
  8
MAKE2D$VISIBLE$CURVES
 10
473.1036744591699
 20
282.3815570727341
 30
0.0
  0
VERTEX
  5
904
  8
MAKE2D$VISIBLE$CURVES
 10
473.0701869743295
 20
282.4423705318482
 30
0.0
  0
VERTEX
  5
905
  8
MAKE2D$VISIBLE$CURVES
 10
473.0388303024926
 20
282.5043095953032
 30
0.0
  0
VERTEX
  5
906
  8
MAKE2D$VISIBLE$CURVES
 10
473.0096422260073
 20
282.567299631352
 30
0.0
  0
VERTEX
  5
907
  8
MAKE2D$VISIBLE$CURVES
 10
472.9826579142315
 20
282.6312647419074
 30
0.0
  0
VERTEX
  5
908
  8
MAKE2D$VISIBLE$CURVES
 10
472.9579098811589
 20
282.6961278539929
 30
0.0
  0
VERTEX
  5
909
  8
MAKE2D$VISIBLE$CURVES
 10
472.9354279462429
 20
282.7618108126109
 30
0.0
  0
VERTEX
  5
90A
  8
MAKE2D$VISIBLE$CURVES
 10
472.9152391984641
 20
282.8282344749119
 30
0.0
  0
VERTEX
  5
90B
  8
MAKE2D$VISIBLE$CURVES
 10
472.8973679636899
 20
282.8953188055563
 30
0.0
  0
VERTEX
  5
90C
  8
MAKE2D$VISIBLE$CURVES
 10
472.8818357753668
 20
282.962982973151
 30
0.0
  0
VERTEX
  5
90D
  8
MAKE2D$VISIBLE$CURVES
 10
472.8686613485722
 20
283.031145447644
 30
0.0
  0
VERTEX
  5
90E
  8
MAKE2D$VISIBLE$CURVES
 10
472.8578605574646
 20
283.0997240985625
 30
0.0
  0
VERTEX
  5
90F
  8
MAKE2D$VISIBLE$CURVES
 10
472.8494464161556
 20
283.1686362939737
 30
0.0
  0
VERTEX
  5
910
  8
MAKE2D$VISIBLE$CURVES
 10
472.8434290630291
 20
283.2377990000496
 30
0.0
  0
VERTEX
  5
911
  8
MAKE2D$VISIBLE$CURVES
 10
472.8398157485287
 20
283.3071288811161
 30
0.0
  0
SEQEND
  5
A8C
  8
MAKE2D$VISIBLE$CURVES
  0
POLYLINE
  5
7D
  8
LAYER_03
 66
     1
 10
0.0
 20
0.0
 30
0.0
 70
     1
  0
VERTEX
  5
912
  8
LAYER_03
 10
259.7723539508895
 20
12.40555171014525
 30
0.0
  0
VERTEX
  5
913
  8
LAYER_03
 10
328.3252718553264
 20
12.40555171014525
 30
0.0
  0
VERTEX
  5
914
  8
LAYER_03
 10
328.3252718553264
 20
43.19150053354785
 30
0.0
  0
VERTEX
  5
915
  8
LAYER_03
 10
328.5211423134385
 20
43.19150053354805
 30
0.0
  0
VERTEX
  5
916
  8
LAYER_03
 10
328.5485716567015
 20
44.78414875328757
 30
0.0
  0
VERTEX
  5
917
  8
LAYER_03
 10
328.6308271524746
 20
46.37490792868964
 30
0.0
  0
VERTEX
  5
918
  8
LAYER_03
 10
328.7678112372921
 20
47.96189125601778
 30
0.0
  0
VERTEX
  5
919
  8
LAYER_03
 10
328.9593614339626
 20
49.54321641007884
 30
0.0
  0
VERTEX
  5
91A
  8
LAYER_03
 10
329.2052505442813
 20
51.11700777685438
 30
0.0
  0
VERTEX
  5
91B
  8
LAYER_03
 10
329.5051869185151
 20
52.68139867817096
 30
0.0
  0
VERTEX
  5
91C
  8
LAYER_03
 10
329.8588148013229
 20
54.23453358577284
 30
0.0
  0
VERTEX
  5
91D
  8
LAYER_03
 10
330.2657147537226
 20
55.77457032216869
 30
0.0
  0
VERTEX
  5
91E
  8
LAYER_03
 10
330.7254041505836
 20
57.29968224564298
 30
0.0
  0
VERTEX
  5
91F
  8
LAYER_03
 10
331.2373377530791
 20
58.80806041684114
 30
0.0
  0
VERTEX
  5
920
  8
LAYER_03
 10
331.800908355384
 20
60.29791574435727
 30
0.0
  0
VERTEX
  5
921
  8
LAYER_03
 10
332.4154475048915
 20
61.76748110677998
 30
0.0
  0
VERTEX
  5
922
  8
LAYER_03
 10
333.0802262950653
 20
63.21501344868027
 30
0.0
  0
VERTEX
  5
923
  8
LAYER_03
 10
333.7944562299905
 20
64.63879584805373
 30
0.0
  0
VERTEX
  5
924
  8
LAYER_03
 10
334.557290159624
 20
66.03713955276713
 30
0.0
  0
VERTEX
  5
925
  8
LAYER_03
 10
335.3678232845875
 20
67.40838598359095
 30
0.0
  0
VERTEX
  5
926
  8
LAYER_03
 10
336.2250942293628
 20
68.75090870144537
 30
0.0
  0
VERTEX
  5
927
  8
LAYER_03
 10
337.128086182575
 20
70.06311533652358
 30
0.0
  0
VERTEX
  5
928
  8
LAYER_03
 10
338.0757281030425
 20
71.34344947700627
 30
0.0
  0
VERTEX
  5
929
  8
LAYER_03
 10
339.0668959901311
 20
72.59039251512569
 30
0.0
  0
VERTEX
  5
92A
  8
LAYER_03
 10
340.1004142169456
 20
73.80246544839035
 30
0.0
  0
VERTEX
  5
92B
  8
LAYER_03
 10
341.1750569247367
 20
74.97823063383395
 30
0.0
  0
VERTEX
  5
92C
  8
LAYER_03
 10
342.2895494768988
 20
76.11629349320758
 30
0.0
  0
VERTEX
  5
92D
  8
LAYER_03
 10
343.4425699708178
 20
77.21530416709258
 30
0.0
  0
VERTEX
  5
92E
  8
LAYER_03
 10
344.6327508057845
 20
78.27395911597254
 30
0.0
  0
VERTEX
  5
92F
  8
LAYER_03
 10
345.8586803051109
 20
79.29100266636526
 30
0.0
  0
VERTEX
  5
930
  8
LAYER_03
 10
347.1189043905167
 20
80.26522850017993
 30
0.0
  0
VERTEX
  5
931
  8
LAYER_03
 10
348.4119283068273
 20
81.19548108553458
 30
0.0
  0
VERTEX
  5
932
  8
LAYER_03
 10
349.7362183948978
 20
82.08065704733563
 30
0.0
  0
VERTEX
  5
933
  8
LAYER_03
 10
351.0902039106911
 20
82.91970647599406
 30
0.0
  0
VERTEX
  5
934
  8
LAYER_03
 10
352.4722788883461
 20
83.71163417272548
 30
0.0
  0
VERTEX
  5
935
  8
LAYER_03
 10
353.8808040450137
 20
84.45550082995878
 30
0.0
  0
VERTEX
  5
936
  8
LAYER_03
 10
355.3141087252185
 20
85.15042414545108
 30
0.0
  0
VERTEX
  5
937
  8
LAYER_03
 10
356.770492882422
 20
85.79557986878864
 30
0.0
  0
VERTEX
  5
938
  8
LAYER_03
 10
358.2482290954601
 20
86.39020277903278
 30
0.0
  0
VERTEX
  5
939
  8
LAYER_03
 10
359.7455646174346
 20
86.93358759235018
 30
0.0
  0
VERTEX
  5
93A
  8
LAYER_03
 10
361.2607234546564
 20
87.42508979855215
 30
0.0
  0
VERTEX
  5
93B
  8
LAYER_03
 10
362.7919084731518
 20
87.86412642555017
 30
0.0
  0
VERTEX
  5
93C
  8
LAYER_03
 10
364.3373035302527
 20
88.25017673081986
 30
0.0
  0
VERTEX
  5
93D
  8
LAYER_03
 10
365.8950756287256
 20
88.58278281905574
 30
0.0
  0
VERTEX
  5
93E
  8
LAYER_03
 10
367.4633770908928
 20
88.86155018528204
 30
0.0
  0
VERTEX
  5
93F
  8
LAYER_03
 10
369.0403477501738
 20
89.08614818277583
 30
0.0
  0
VERTEX
  5
940
  8
LAYER_03
 10
370.6241171574272
 20
89.25631041524814
 30
0.0
  0
VERTEX
  5
941
  8
LAYER_03
 10
372.2128067994988
 20
89.37183505281733
 30
0.0
  0
VERTEX
  5
942
  8
LAYER_03
 10
373.8045323273306
 20
89.43258507140017
 30
0.0
  0
VERTEX
  5
943
  8
LAYER_03
 10
375.3974057909933
 20
89.43848841523594
 30
0.0
  0
VERTEX
  5
944
  8
LAYER_03
 10
376.9895378789885
 20
89.38953808235304
 30
0.0
  0
VERTEX
  5
945
  8
LAYER_03
 10
378.5790401591618
 20
89.28579213287257
 30
0.0
  0
VERTEX
  5
946
  8
LAYER_03
 10
380.1640273185846
 20
89.12737362014455
 30
0.0
  0
VERTEX
  5
947
  8
LAYER_03
 10
381.7426193997241
 20
88.91447044479285
 30
0.0
  0
VERTEX
  5
948
  8
LAYER_03
 10
383.3129440302661
 20
88.64733513184653
 30
0.0
  0
VERTEX
  5
949
  8
LAYER_03
 10
384.8731386439437
 20
88.32628453121877
 30
0.0
  0
VERTEX
  5
94A
  8
LAYER_03
 10
386.4213526897281
 20
87.95169944189034
 30
0.0
  0
VERTEX
  5
94B
  8
LAYER_03
 10
387.9557498267756
 20
87.52402416024357
 30
0.0
  0
VERTEX
  5
94C
  8
LAYER_03
 10
389.4745101025143
 20
87.04376595308007
 30
0.0
  0
VERTEX
  5
94D
  8
LAYER_03
 10
390.9758321112965
 20
86.51149445595117
 30
0.0
  0
VERTEX
  5
94E
  8
LAYER_03
 10
392.4669847063466
 20
85.92409488914335
 30
0.0
  0
VERTEX
  5
94F
  8
LAYER_03
 10
393.9368908007597
 20
85.28538494995455
 30
0.0
  0
VERTEX
  5
950
  8
LAYER_03
 10
395.3837854319779
 20
84.59613155753213
 30
0.0
  0
VERTEX
  5
951
  8
LAYER_03
 10
396.8059312680286
 20
83.85716232013998
 30
0.0
  0
VERTEX
  5
952
  8
LAYER_03
 10
398.2016206936038
 20
83.06936454142344
 30
0.0
  0
VERTEX
  5
953
  8
LAYER_03
 10
399.5691778604348
 20
82.23368415499594
 30
0.0
  0
VERTEX
  5
954
  8
LAYER_03
 10
400.906960699546
 20
81.35112458862658
 30
0.0
  0
VERTEX
  5
955
  8
LAYER_03
 10
402.2133628929348
 20
80.42274555939268
 30
0.0
  0
VERTEX
  5
956
  8
LAYER_03
 10
403.486815802327
 20
79.44966180124406
 30
0.0
  0
VERTEX
  5
957
  8
LAYER_03
 10
404.7257903526922
 20
78.43304172650737
 30
0.0
  0
VERTEX
  5
958
  8
LAYER_03
 10
405.9287988682533
 20
77.37410602293623
 30
0.0
  0
VERTEX
  5
959
  8
LAYER_03
 10
407.0943968587841
 20
76.27412618799268
 30
0.0
  0
VERTEX
  5
95A
  8
LAYER_03
 10
408.2211847540536
 20
75.13442300212067
 30
0.0
  0
VERTEX
  5
95B
  8
LAYER_03
 10
409.3078095843336
 20
73.95636494284314
 30
0.0
  0
VERTEX
  5
95C
  8
LAYER_03
 10
410.3529666049569
 20
72.74136654158785
 30
0.0
  0
VERTEX
  5
95D
  8
LAYER_03
 10
411.3554008629605
 20
71.49088668521527
 30
0.0
  0
VERTEX
  5
95E
  8
LAYER_03
 10
412.3139087039451
 20
70.20642686428646
 30
0.0
  0
VERTEX
  5
95F
  8
LAYER_03
 10
413.2273392173508
 20
68.88952937017687
 30
0.0
  0
VERTEX
  5
960
  8
LAYER_03
 10
414.0945956183784
 20
67.54177544319798
 30
0.0
  0
VERTEX
  5
961
  8
LAYER_03
 10
414.9146365649455
 20
66.16478337395237
 30
0.0
  0
VERTEX
  5
962
  8
LAYER_03
 10
415.6864774080502
 20
64.76020656020135
 30
0.0
  0
VERTEX
  5
963
  8
LAYER_03
 10
416.4091913740746
 20
63.32973152157795
 30
0.0
  0
VERTEX
  5
964
  8
LAYER_03
 10
417.0819106775895
 20
61.87507587452977
 30
0.0
  0
VERTEX
  5
965
  8
LAYER_03
 10
417.7038275633328
 20
60.39798626992255
 30
0.0
  0
VERTEX
  5
966
  8
LAYER_03
 10
418.2741952761059
 20
58.90023629578228
 30
0.0
  0
VERTEX
  5
967
  8
LAYER_03
 10
418.7923289574243
 20
57.38362434769088
 30
0.0
  0
VERTEX
  5
968
  8
LAYER_03
 10
419.2576064678557
 20
55.84997146939706
 30
0.0
  0
VERTEX
  5
969
  8
LAYER_03
 10
419.6694691340314
 20
54.30111916623137
 30
0.0
  0
VERTEX
  5
96A
  8
LAYER_03
 10
420.0274224194733
 20
52.73892719395234
 30
0.0
  0
VERTEX
  5
96B
  8
LAYER_03
 10
420.3310365183922
 20
51.16527132567988
 30
0.0
  0
VERTEX
  5
96C
  8
LAYER_03
 10
420.5799468717766
 20
49.58204109959478
 30
0.0
  0
VERTEX
  5
96D
  8
LAYER_03
 10
420.7738546051193
 20
47.99113755011074
 30
0.0
  0
VERTEX
  5
96E
  8
LAYER_03
 10
420.9125268873001
 20
46.39447092524317
 30
0.0
  0
VERTEX
  5
96F
  8
LAYER_03
 10
420.9957972101381
 20
44.79395839291298
 30
0.0
  0
VERTEX
  5
970
  8
LAYER_03
 10
421.0235655883332
 20
43.19152173894388
 30
0.0
  0
VERTEX
  5
971
  8
LAYER_03
 10
421.0235655883341
 20
12.40555171014437
 30
0.0
  0
VERTEX
  5
972
  8
LAYER_03
 10
489.7723539508895
 20
12.40555171014437
 30
0.0
  0
VERTEX
  5
973
  8
LAYER_03
 10
489.7723539508895
 20
64.67513304944815
 30
0.0
  0
VERTEX
  5
974
  8
LAYER_03
 10
489.7723539508922
 20
423.0223459293958
 30
0.0
  0
VERTEX
  5
975
  8
LAYER_03
 10
449.7723539508922
 20
423.0223459293958
 30
0.0
  0
VERTEX
  5
976
  8
LAYER_03
 10
449.7723539508922
 20
415.5266161255541
 30
0.0
 42
-1.0
  0
VERTEX
  5
977
  8
LAYER_03
 10
445.2680837547339
 20
411.0223459293959
 30
0.0
  0
VERTEX
  5
978
  8
LAYER_03
 10
404.2766241470505
 20
411.0223459293962
 30
0.0
 42
-1.0
  0
VERTEX
  5
979
  8
LAYER_03
 10
399.7723539508922
 20
415.5266161255546
 30
0.0
  0
VERTEX
  5
97A
  8
LAYER_03
 10
399.7723539508922
 20
423.0223459293963
 30
0.0
  0
VERTEX
  5
97B
  8
LAYER_03
 10
349.7723539508922
 20
423.0223459293963
 30
0.0
  0
VERTEX
  5
97C
  8
LAYER_03
 10
349.7723539508922
 20
415.5266161255546
 30
0.0
 42
-1.0
  0
VERTEX
  5
97D
  8
LAYER_03
 10
345.2680837547339
 20
411.0223459293964
 30
0.0
  0
VERTEX
  5
97E
  8
LAYER_03
 10
304.2766241470505
 20
411.0223459293967
 30
0.0
 42
-1.0
  0
VERTEX
  5
97F
  8
LAYER_03
 10
299.7723539508922
 20
415.5266161255551
 30
0.0
  0
VERTEX
  5
980
  8
LAYER_03
 10
299.7723539508922
 20
423.0223459293967
 30
0.0
  0
VERTEX
  5
981
  8
LAYER_03
 10
259.7723539508922
 20
423.0223459293967
 30
0.0
  0
VERTEX
  5
982
  8
LAYER_03
 10
259.7723539508904
 20
64.67513168393747
 30
0.0
  0
SEQEND
  5
A8D
  8
LAYER_03
  0
POLYLINE
  5
7E
  8
LAYER_03
 66
     1
 10
0.0
 20
0.0
 30
0.0
 70
     1
  0
VERTEX
  5
983
  8
LAYER_03
 10
238.7936191119371
 20
12.40555171014545
 30
0.0
  0
VERTEX
  5
984
  8
LAYER_03
 10
238.7936191119371
 20
12.47342796400829
 30
0.0
  0
VERTEX
  5
985
  8
LAYER_03
 10
238.7936191119371
 20
423.022345929397
 30
0.0
  0
VERTEX
  5
986
  8
LAYER_03
 10
198.7936191119371
 20
423.022345929397
 30
0.0
  0
VERTEX
  5
987
  8
LAYER_03
 10
198.7936191119371
 20
415.5266161255553
 30
0.0
 42
-1.0
  0
VERTEX
  5
988
  8
LAYER_03
 10
194.2893489157788
 20
411.022345929397
 30
0.0
  0
VERTEX
  5
989
  8
LAYER_03
 10
153.2978893080954
 20
411.022345929397
 30
0.0
 42
-1.0
  0
VERTEX
  5
98A
  8
LAYER_03
 10
148.7936191119371
 20
415.5266161255553
 30
0.0
  0
VERTEX
  5
98B
  8
LAYER_03
 10
148.7936191119371
 20
423.022345929397
 30
0.0
  0
VERTEX
  5
98C
  8
LAYER_03
 10
98.79361911193706
 20
423.022345929397
 30
0.0
  0
VERTEX
  5
98D
  8
LAYER_03
 10
98.79361911193706
 20
415.5266161255553
 30
0.0
 42
-1.0
  0
VERTEX
  5
98E
  8
LAYER_03
 10
94.28934891577875
 20
411.022345929397
 30
0.0
  0
VERTEX
  5
98F
  8
LAYER_03
 10
53.29788930809536
 20
411.022345929397
 30
0.0
 42
-1.0
  0
VERTEX
  5
990
  8
LAYER_03
 10
48.79361911193706
 20
415.5266161255553
 30
0.0
  0
VERTEX
  5
991
  8
LAYER_03
 10
48.79361911193706
 20
423.022345929397
 30
0.0
  0
VERTEX
  5
992
  8
LAYER_03
 10
8.793619111937062
 20
423.022345929397
 30
0.0
  0
VERTEX
  5
993
  8
LAYER_03
 10
8.793619111937062
 20
12.40555171014547
 30
0.0
  0
VERTEX
  5
994
  8
LAYER_03
 10
77.54240747449245
 20
12.40555171014545
 30
0.0
  0
VERTEX
  5
995
  8
LAYER_03
 10
77.54240747449336
 20
43.19152158352567
 30
0.0
  0
VERTEX
  5
996
  8
LAYER_03
 10
77.57017584745705
 20
44.79395824202594
 30
0.0
  0
VERTEX
  5
997
  8
LAYER_03
 10
77.65344616537828
 20
46.39447077905787
 30
0.0
  0
VERTEX
  5
998
  8
LAYER_03
 10
77.79211844295975
 20
47.99113740878134
 30
0.0
  0
VERTEX
  5
999
  8
LAYER_03
 10
77.98602617202874
 20
49.58204096325908
 30
0.0
  0
VERTEX
  5
99A
  8
LAYER_03
 10
78.23493652146777
 20
51.16527119445918
 30
0.0
  0
VERTEX
  5
99B
  8
LAYER_03
 10
78.53855061677046
 20
52.73892706795094
 30
0.0
  0
VERTEX
  5
99C
  8
LAYER_03
 10
78.8965038989291
 20
54.30111904553705
 30
0.0
  0
VERTEX
  5
99D
  8
LAYER_03
 10
79.30836656215712
 20
55.84997135408103
 30
0.0
  0
VERTEX
  5
99E
  8
LAYER_03
 10
79.77364406997373
 20
57.38362423780727
 30
0.0
  0
VERTEX
  5
99F
  8
LAYER_03
 10
80.2917777490157
 20
58.90023619136865
 30
0.0
  0
VERTEX
  5
9A0
  8
LAYER_03
 10
80.86214545984518
 20
60.39798617099989
 30
0.0
  0
VERTEX
  5
9A1
  8
LAYER_03
 10
81.48406234397959
 20
61.87507578110204
 30
0.0
  0
VERTEX
  5
9A2
  8
LAYER_03
 10
82.15678164621573
 20
63.32973143363334
 30
0.0
  0
VERTEX
  5
9A3
  8
LAYER_03
 10
82.87949561128795
 20
64.76020647771144
 30
0.0
  0
VERTEX
  5
9A4
  8
LAYER_03
 10
83.65133645376778
 20
66.16478329687264
 30
0.0
  0
VERTEX
  5
9A5
  8
LAYER_03
 10
84.47137740002842
 20
67.54177537146818
 30
0.0
  0
VERTEX
  5
9A6
  8
LAYER_03
 10
85.3386338010651
 20
68.88952930372118
 30
0.0
  0
VERTEX
  5
9A7
  8
LAYER_03
 10
86.25206431478824
 20
70.20642680301368
 30
0.0
  0
VERTEX
  5
9A8
  8
LAYER_03
 10
87.210572156394
 20
71.49088662901913
 30
0.0
  0
VERTEX
  5
9A9
  8
LAYER_03
 10
88.21300641531349
 20
72.74136649034777
 30
0.0
  0
VERTEX
  5
9AA
  8
LAYER_03
 10
89.25816343714001
 20
73.95636489642384
 30
0.0
  0
VERTEX
  5
9AB
  8
LAYER_03
 10
90.34478826890432
 20
75.13442296037327
 30
0.0
  0
VERTEX
  5
9AC
  8
LAYER_03
 10
91.47157616592727
 20
76.27412615075484
 30
0.0
  0
VERTEX
  5
9AD
  8
LAYER_03
 10
92.63717415847174
 20
77.37410599003253
 30
0.0
  0
VERTEX
  5
9AE
  8
LAYER_03
 10
93.84018267629841
 20
78.43304169774994
 30
0.0
  0
VERTEX
  5
9AF
  8
LAYER_03
 10
95.0791572291692
 20
79.44966177643293
 30
0.0
  0
VERTEX
  5
9B0
  8
LAYER_03
 10
96.35261014129543
 20
80.42274553831645
 30
0.0
  0
VERTEX
  5
9B1
  8
LAYER_03
 10
97.65901233763458
 20
81.35112457106304
 30
0.0
  0
VERTEX
  5
9B2
  8
LAYER_03
 10
98.99679517989995
 20
82.23368414071227
 30
0.0
  0
VERTEX
  5
9B3
  8
LAYER_03
 10
100.3643523500796
 20
83.06936453017697
 30
0.0
  0
VERTEX
  5
9B4
  8
LAYER_03
 10
101.7600417791801
 20
83.85716231167878
 30
0.0
  0
VERTEX
  5
9B5
  8
LAYER_03
 10
103.1821876189234
 20
84.59613155159597
 30
0.0
  0
VERTEX
  5
9B6
  8
LAYER_03
 10
104.6290822539841
 20
85.28538494627496
 30
0.0
  0
VERTEX
  5
9B7
  8
LAYER_03
 10
106.0989883523771
 20
85.92409488744475
 30
0.0
  0
VERTEX
  5
9B8
  8
LAYER_03
 10
107.59014095153
 20
86.51149445595125
 30
0.0
  0
VERTEX
  5
9B9
  8
LAYER_03
 10
109.0914629603131
 20
87.04376595308035
 30
0.0
  0
VERTEX
  5
9BA
  8
LAYER_03
 10
110.6102232360518
 20
87.52402416024385
 30
0.0
  0
VERTEX
  5
9BB
  8
LAYER_03
 10
112.1446203730985
 20
87.95169944189068
 30
0.0
  0
VERTEX
  5
9BC
  8
LAYER_03
 10
113.6928344188828
 20
88.32628453121895
 30
0.0
  0
VERTEX
  5
9BD
  8
LAYER_03
 10
115.2530290325604
 20
88.64733513184676
 30
0.0
  0
VERTEX
  5
9BE
  8
LAYER_03
 10
116.8233536631024
 20
88.91447044479308
 30
0.0
  0
VERTEX
  5
9BF
  8
LAYER_03
 10
118.401945744241
 20
89.12737362014478
 30
0.0
  0
VERTEX
  5
9C0
  8
LAYER_03
 10
119.9869329036647
 20
89.28579213287274
 30
0.0
  0
VERTEX
  5
9C1
  8
LAYER_03
 10
121.576435183838
 20
89.38953808235316
 30
0.0
  0
VERTEX
  5
9C2
  8
LAYER_03
 10
123.1685672718323
 20
89.43848841523616
 30
0.0
  0
VERTEX
  5
9C3
  8
LAYER_03
 10
124.7614407354959
 20
89.43258507140028
 30
0.0
  0
VERTEX
  5
9C4
  8
LAYER_03
 10
126.3531662633278
 20
89.37183505281745
 30
0.0
  0
VERTEX
  5
9C5
  8
LAYER_03
 10
127.9418559053993
 20
89.25631041524825
 30
0.0
  0
VERTEX
  5
9C6
  8
LAYER_03
 10
129.5256253126518
 20
89.08614818277594
 30
0.0
  0
VERTEX
  5
9C7
  8
LAYER_03
 10
131.1025959719328
 20
88.86155018528216
 30
0.0
  0
VERTEX
  5
9C8
  8
LAYER_03
 10
132.6708974341009
 20
88.58278281905585
 30
0.0
  0
VERTEX
  5
9C9
  8
LAYER_03
 10
134.228669532573
 20
88.25017673081997
 30
0.0
  0
VERTEX
  5
9CA
  8
LAYER_03
 10
135.7740645896729
 20
87.86412642555028
 30
0.0
  0
VERTEX
  5
9CB
  8
LAYER_03
 10
137.3052496081692
 20
87.42508979855215
 30
0.0
  0
VERTEX
  5
9CC
  8
LAYER_03
 10
138.820408445391
 20
86.93358759235018
 30
0.0
  0
VERTEX
  5
9CD
  8
LAYER_03
 10
140.3177439673655
 20
86.39020277903266
 30
0.0
  0
VERTEX
  5
9CE
  8
LAYER_03
 10
141.7954801804026
 20
85.79557986878858
 30
0.0
  0
VERTEX
  5
9CF
  8
LAYER_03
 10
143.2518643376062
 20
85.15042414545097
 30
0.0
  0
VERTEX
  5
9D0
  8
LAYER_03
 10
144.685169017811
 20
84.45550082995867
 30
0.0
  0
VERTEX
  5
9D1
  8
LAYER_03
 10
146.0936941744795
 20
83.71163417272537
 30
0.0
  0
VERTEX
  5
9D2
  8
LAYER_03
 10
147.4757691521345
 20
82.91970647599383
 30
0.0
  0
VERTEX
  5
9D3
  8
LAYER_03
 10
148.8297546679269
 20
82.08065704733546
 30
0.0
  0
VERTEX
  5
9D4
  8
LAYER_03
 10
150.1540447559983
 20
81.19548108553435
 30
0.0
  0
VERTEX
  5
9D5
  8
LAYER_03
 10
151.447068672308
 20
80.26522850017965
 30
0.0
  0
VERTEX
  5
9D6
  8
LAYER_03
 10
152.7072927577147
 20
79.29100266636497
 30
0.0
  0
VERTEX
  5
9D7
  8
LAYER_03
 10
153.9332222570393
 20
78.27395911597237
 30
0.0
  0
VERTEX
  5
9D8
  8
LAYER_03
 10
155.1234030920078
 20
77.21530416709224
 30
0.0
  0
VERTEX
  5
9D9
  8
LAYER_03
 10
156.2764235859268
 20
76.11629349320724
 30
0.0
  0
VERTEX
  5
9DA
  8
LAYER_03
 10
157.390916138088
 20
74.97823063383366
 30
0.0
  0
VERTEX
  5
9DB
  8
LAYER_03
 10
158.4655588458791
 20
73.80246544839007
 30
0.0
  0
VERTEX
  5
9DC
  8
LAYER_03
 10
159.4990770726945
 20
72.59039251512534
 30
0.0
  0
VERTEX
  5
9DD
  8
LAYER_03
 10
160.4902449597822
 20
71.34344947700588
 30
0.0
  0
VERTEX
  5
9DE
  8
LAYER_03
 10
161.4378868802488
 20
70.06311533652318
 30
0.0
  0
VERTEX
  5
9DF
  8
LAYER_03
 10
162.340878833461
 20
68.75090870144497
 30
0.0
  0
VERTEX
  5
9E0
  8
LAYER_03
 10
163.1981497782372
 20
67.40838598359055
 30
0.0
  0
VERTEX
  5
9E1
  8
LAYER_03
 10
164.0086829032007
 20
66.03713955276673
 30
0.0
  0
VERTEX
  5
9E2
  8
LAYER_03
 10
164.7715168328332
 20
64.63879584805333
 30
0.0
  0
VERTEX
  5
9E3
  8
LAYER_03
 10
165.4857467677594
 20
63.21501344867976
 30
0.0
  0
VERTEX
  5
9E4
  8
LAYER_03
 10
166.1505255579323
 20
61.76748110677958
 30
0.0
  0
VERTEX
  5
9E5
  8
LAYER_03
 10
166.7650647074398
 20
60.29791574435687
 30
0.0
  0
VERTEX
  5
9E6
  8
LAYER_03
 10
167.3286353097447
 20
58.80806041684063
 30
0.0
  0
VERTEX
  5
9E7
  8
LAYER_03
 10
167.8405689122392
 20
57.29968224564247
 30
0.0
  0
VERTEX
  5
9E8
  8
LAYER_03
 10
168.3002583091011
 20
55.77457032216823
 30
0.0
  0
VERTEX
  5
9E9
  8
LAYER_03
 10
168.7071582615
 20
54.23453358577244
 30
0.0
  0
VERTEX
  5
9EA
  8
LAYER_03
 10
169.0607861443078
 20
52.68139867817057
 30
0.0
  0
VERTEX
  5
9EB
  8
LAYER_03
 10
169.3607225185415
 20
51.11700777685398
 30
0.0
  0
VERTEX
  5
9EC
  8
LAYER_03
 10
169.6066116288612
 20
49.54321641007856
 30
0.0
  0
VERTEX
  5
9ED
  8
LAYER_03
 10
169.7981618255299
 20
47.96189125601744
 30
0.0
  0
VERTEX
  5
9EE
  8
LAYER_03
 10
169.9351459103473
 20
46.37490792868935
 30
0.0
  0
VERTEX
  5
9EF
  8
LAYER_03
 10
170.0174014061204
 20
44.78414875328734
 30
0.0
  0
VERTEX
  5
9F0
  8
LAYER_03
 10
170.0448307493839
 20
43.19150053354808
 30
0.0
  0
VERTEX
  5
9F1
  8
LAYER_03
 10
170.2407012075001
 20
43.19150053354808
 30
0.0
  0
VERTEX
  5
9F2
  8
LAYER_03
 10
170.2407012075001
 20
12.40555171014545
 30
0.0
  0
SEQEND
  5
A8E
  8
LAYER_03
  0
POLYLINE
  5
7F
  8
LAYER_03
 66
     1
 10
0.0
 20
0.0
 30
0.0
 70
     1
  0
VERTEX
  5
9F3
  8
LAYER_03
 10
46.06246478750842
 20
393.5180757332396
 30
0.0
  0
VERTEX
  5
9F4
  8
LAYER_03
 10
46.06246478750842
 20
352.5266161255562
 30
0.0
 42
-1.0
  0
VERTEX
  5
9F5
  8
LAYER_03
 10
41.55819459135011
 20
348.0223459293979
 30
0.0
  0
VERTEX
  5
9F6
  8
LAYER_03
 10
38.56673498366673
 20
348.0223459293979
 30
0.0
 42
-1.0
  0
VERTEX
  5
9F7
  8
LAYER_03
 10
34.06246478750842
 20
352.5266161255562
 30
0.0
  0
VERTEX
  5
9F8
  8
LAYER_03
 10
34.06246478750842
 20
393.5180757332396
 30
0.0
 42
-1.0
  0
VERTEX
  5
9F9
  8
LAYER_03
 10
38.56673498366673
 20
398.0223459293979
 30
0.0
  0
VERTEX
  5
9FA
  8
LAYER_03
 10
41.55819459135011
 20
398.0223459293979
 30
0.0
 42
-1.0
  0
SEQEND
  5
A8F
  8
LAYER_03
  0
POLYLINE
  5
80
  8
LAYER_03
 66
     1
 10
0.0
 20
0.0
 30
0.0
 70
     1
  0
VERTEX
  5
9FB
  8
LAYER_03
 10
217.6319365958826
 20
393.5180757332396
 30
0.0
  0
VERTEX
  5
9FC
  8
LAYER_03
 10
217.6319365958826
 20
352.5266161255562
 30
0.0
 42
-1.0
  0
VERTEX
  5
9FD
  8
LAYER_03
 10
213.1276663997243
 20
348.0223459293979
 30
0.0
  0
VERTEX
  5
9FE
  8
LAYER_03
 10
210.1362067920409
 20
348.0223459293979
 30
0.0
 42
-1.0
  0
VERTEX
  5
9FF
  8
LAYER_03
 10
205.6319365958826
 20
352.5266161255562
 30
0.0
  0
VERTEX
  5
A00
  8
LAYER_03
 10
205.6319365958826
 20
393.5180757332396
 30
0.0
 42
-1.0
  0
VERTEX
  5
A01
  8
LAYER_03
 10
210.1362067920409
 20
398.0223459293979
 30
0.0
  0
VERTEX
  5
A02
  8
LAYER_03
 10
213.1276663997243
 20
398.0223459293979
 30
0.0
 42
-1.0
  0
SEQEND
  5
A90
  8
LAYER_03
  0
POLYLINE
  5
81
  8
LAYER_03
 66
     1
 10
0.0
 20
0.0
 30
0.0
 70
     1
  0
VERTEX
  5
A03
  8
LAYER_03
 10
53.29788930809537
 20
289.3765424000675
 30
0.0
  0
VERTEX
  5
A04
  8
LAYER_03
 10
94.28934891577876
 20
289.3765424000675
 30
0.0
 42
-1.0
  0
VERTEX
  5
A05
  8
LAYER_03
 10
98.79361911193706
 20
284.8722722039092
 30
0.0
  0
VERTEX
  5
A06
  8
LAYER_03
 10
98.79361911193706
 20
281.8808125962259
 30
0.0
 42
-1.0
  0
VERTEX
  5
A07
  8
LAYER_03
 10
94.28934891577876
 20
277.3765424000676
 30
0.0
  0
VERTEX
  5
A08
  8
LAYER_03
 10
53.29788930809537
 20
277.3765424000676
 30
0.0
 42
-1.0
  0
VERTEX
  5
A09
  8
LAYER_03
 10
48.79361911193706
 20
281.8808125962259
 30
0.0
  0
VERTEX
  5
A0A
  8
LAYER_03
 10
48.79361911193706
 20
284.8722722039092
 30
0.0
 42
-1.0
  0
SEQEND
  5
A91
  8
LAYER_03
  0
POLYLINE
  5
82
  8
LAYER_03
 66
     1
 10
0.0
 20
0.0
 30
0.0
 70
     1
  0
VERTEX
  5
A0B
  8
LAYER_03
 10
153.2978893080954
 20
289.3765424000675
 30
0.0
  0
VERTEX
  5
A0C
  8
LAYER_03
 10
194.2893489157788
 20
289.3765424000675
 30
0.0
 42
-1.0
  0
VERTEX
  5
A0D
  8
LAYER_03
 10
198.7936191119371
 20
284.8722722039092
 30
0.0
  0
VERTEX
  5
A0E
  8
LAYER_03
 10
198.7936191119371
 20
281.8808125962259
 30
0.0
 42
-1.0
  0
VERTEX
  5
A0F
  8
LAYER_03
 10
194.2893489157788
 20
277.3765424000676
 30
0.0
  0
VERTEX
  5
A10
  8
LAYER_03
 10
153.2978893080954
 20
277.3765424000676
 30
0.0
 42
-1.0
  0
VERTEX
  5
A11
  8
LAYER_03
 10
148.7936191119371
 20
281.8808125962259
 30
0.0
  0
VERTEX
  5
A12
  8
LAYER_03
 10
148.7936191119371
 20
284.8722722039092
 30
0.0
 42
-1.0
  0
SEQEND
  5
A92
  8
LAYER_03
  0
POLYLINE
  5
83
  8
LAYER_03
 66
     1
 10
0.0
 20
0.0
 30
0.0
 70
     1
  0
VERTEX
  5
A13
  8
LAYER_03
 10
53.29788930809538
 20
122.9263433213832
 30
0.0
  0
VERTEX
  5
A14
  8
LAYER_03
 10
94.28934891577876
 20
122.9263433213831
 30
0.0
 42
-1.0
  0
VERTEX
  5
A15
  8
LAYER_03
 10
98.79361911193706
 20
118.4220731252248
 30
0.0
  0
VERTEX
  5
A16
  8
LAYER_03
 10
98.79361911193706
 20
115.4306135175414
 30
0.0
 42
-1.0
  0
VERTEX
  5
A17
  8
LAYER_03
 10
94.28934891577876
 20
110.9263433213831
 30
0.0
  0
VERTEX
  5
A18
  8
LAYER_03
 10
77.54240747449154
 20
110.9263433213831
 30
0.0
  0
VERTEX
  5
A19
  8
LAYER_03
 10
53.29788930809536
 20
110.9263433213832
 30
0.0
 42
-1.0
  0
VERTEX
  5
A1A
  8
LAYER_03
 10
48.79361911193706
 20
115.4306135175415
 30
0.0
  0
VERTEX
  5
A1B
  8
LAYER_03
 10
48.79361911193706
 20
118.4220731252249
 30
0.0
 42
-1.0
  0
SEQEND
  5
A93
  8
LAYER_03
  0
POLYLINE
  5
84
  8
LAYER_03
 66
     1
 10
0.0
 20
0.0
 30
0.0
 70
     1
  0
VERTEX
  5
A1C
  8
LAYER_03
 10
198.7936191119371
 20
118.4220731252248
 30
0.0
  0
VERTEX
  5
A1D
  8
LAYER_03
 10
198.7936191119371
 20
115.4306135175414
 30
0.0
 42
-1.0
  0
VERTEX
  5
A1E
  8
LAYER_03
 10
194.2893489157788
 20
110.9263433213831
 30
0.0
  0
VERTEX
  5
A1F
  8
LAYER_03
 10
170.2407012075001
 20
110.9263433213832
 30
0.0
  0
VERTEX
  5
A20
  8
LAYER_03
 10
153.2978893080954
 20
110.9263433213831
 30
0.0
 42
-1.0
  0
VERTEX
  5
A21
  8
LAYER_03
 10
148.7936191119371
 20
115.4306135175414
 30
0.0
  0
VERTEX
  5
A22
  8
LAYER_03
 10
148.7936191119371
 20
118.4220731252248
 30
0.0
 42
-1.0
  0
VERTEX
  5
A23
  8
LAYER_03
 10
153.2978893080954
 20
122.9263433213831
 30
0.0
  0
VERTEX
  5
A24
  8
LAYER_03
 10
194.2893489157788
 20
122.9263433213831
 30
0.0
 42
-1.0
  0
SEQEND
  5
A94
  8
LAYER_03
  0
POLYLINE
  5
85
  8
LAYER_03
 66
     1
 10
0.0
 20
0.0
 30
0.0
 70
     1
  0
VERTEX
  5
A25
  8
LAYER_03
 10
41.55819459135011
 20
47.92634332104505
 30
0.0
  0
VERTEX
  5
A26
  8
LAYER_03
 10
38.56673498366673
 20
47.92634332104505
 30
0.0
 42
-1.0
  0
VERTEX
  5
A27
  8
LAYER_03
 10
34.06246478750842
 20
52.43061351720336
 30
0.0
  0
VERTEX
  5
A28
  8
LAYER_03
 10
34.06246478750842
 20
64.48490678917868
 30
0.0
  0
VERTEX
  5
A29
  8
LAYER_03
 10
34.06246478750842
 20
93.42207312488665
 30
0.0
 42
-1.0
  0
VERTEX
  5
A2A
  8
LAYER_03
 10
38.56673498366673
 20
97.92634332104495
 30
0.0
  0
VERTEX
  5
A2B
  8
LAYER_03
 10
41.55819459135011
 20
97.92634332104495
 30
0.0
 42
-1.0
  0
VERTEX
  5
A2C
  8
LAYER_03
 10
46.06246478750842
 20
93.42207312488665
 30
0.0
  0
VERTEX
  5
A2D
  8
LAYER_03
 10
46.06246478750842
 20
64.48490678917868
 30
0.0
  0
VERTEX
  5
A2E
  8
LAYER_03
 10
46.06246478750842
 20
52.43061351720336
 30
0.0
 42
-1.0
  0
SEQEND
  5
A95
  8
LAYER_03
  0
POLYLINE
  5
86
  8
LAYER_03
 66
     1
 10
0.0
 20
0.0
 30
0.0
 70
     1
  0
VERTEX
  5
A2F
  8
LAYER_03
 10
205.6319365958826
 20
64.48490678917868
 30
0.0
  0
VERTEX
  5
A30
  8
LAYER_03
 10
205.6319365958826
 20
52.43061351720336
 30
0.0
 42
1.0
  0
VERTEX
  5
A31
  8
LAYER_03
 10
210.1362067920409
 20
47.92634332104505
 30
0.0
  0
VERTEX
  5
A32
  8
LAYER_03
 10
213.1276663997243
 20
47.92634332104505
 30
0.0
 42
1.0
  0
VERTEX
  5
A33
  8
LAYER_03
 10
217.6319365958826
 20
52.43061351720336
 30
0.0
  0
VERTEX
  5
A34
  8
LAYER_03
 10
217.6319365958826
 20
64.48490678917868
 30
0.0
  0
VERTEX
  5
A35
  8
LAYER_03
 10
217.6319365958826
 20
93.42207312488665
 30
0.0
 42
1.0
  0
VERTEX
  5
A36
  8
LAYER_03
 10
213.1276663997243
 20
97.92634332104495
 30
0.0
  0
VERTEX
  5
A37
  8
LAYER_03
 10
210.1362067920409
 20
97.92634332104495
 30
0.0
 42
1.0
  0
VERTEX
  5
A38
  8
LAYER_03
 10
205.6319365958826
 20
93.42207312488665
 30
0.0
  0
SEQEND
  5
A96
  8
LAYER_03
  0
POLYLINE
  5
87
  8
LAYER_03
 66
     1
 10
0.0
 20
0.0
 30
0.0
 70
     1
  0
VERTEX
  5
A39
  8
LAYER_03
 10
292.9340257423771
 20
64.67513168393747
 30
0.0
  0
VERTEX
  5
A3A
  8
LAYER_03
 10
292.9340257423771
 20
52.43061351720336
 30
0.0
 42
-1.0
  0
VERTEX
  5
A3B
  8
LAYER_03
 10
288.4297555462188
 20
47.92634332104505
 30
0.0
  0
VERTEX
  5
A3C
  8
LAYER_03
 10
285.4382959385354
 20
47.92634332104505
 30
0.0
 42
-1.0
  0
VERTEX
  5
A3D
  8
LAYER_03
 10
280.9340257423771
 20
52.43061351720336
 30
0.0
  0
VERTEX
  5
A3E
  8
LAYER_03
 10
280.9340257423771
 20
64.67513168393747
 30
0.0
  0
VERTEX
  5
A3F
  8
LAYER_03
 10
280.9340257423771
 20
93.42207312488677
 30
0.0
 42
-1.0
  0
VERTEX
  5
A40
  8
LAYER_03
 10
285.4382959385354
 20
97.92634332104507
 30
0.0
  0
VERTEX
  5
A41
  8
LAYER_03
 10
288.4297555462188
 20
97.92634332104507
 30
0.0
 42
-1.0
  0
VERTEX
  5
A42
  8
LAYER_03
 10
292.9340257423771
 20
93.42207312488677
 30
0.0
  0
SEQEND
  5
A97
  8
LAYER_03
  0
POLYLINE
  5
88
  8
LAYER_03
 66
     1
 10
0.0
 20
0.0
 30
0.0
 70
     1
  0
VERTEX
  5
A43
  8
LAYER_03
 10
328.3252718553273
 20
110.9263433213829
 30
0.0
  0
VERTEX
  5
A44
  8
LAYER_03
 10
345.268083754732
 20
110.9263433213826
 30
0.0
 42
1.0
  0
VERTEX
  5
A45
  8
LAYER_03
 10
349.7723539508904
 20
115.4306135175408
 30
0.0
  0
VERTEX
  5
A46
  8
LAYER_03
 10
349.7723539508904
 20
118.4220731252242
 30
0.0
 42
1.0
  0
VERTEX
  5
A47
  8
LAYER_03
 10
345.2680837547321
 20
122.9263433213825
 30
0.0
  0
VERTEX
  5
A48
  8
LAYER_03
 10
304.2766241470487
 20
122.9263433213829
 30
0.0
 42
1.0
  0
VERTEX
  5
A49
  8
LAYER_03
 10
299.7723539508904
 20
118.4220731252246
 30
0.0
  0
VERTEX
  5
A4A
  8
LAYER_03
 10
299.7723539508904
 20
115.4306135175412
 30
0.0
 42
1.0
  0
VERTEX
  5
A4B
  8
LAYER_03
 10
304.2766241470487
 20
110.9263433213829
 30
0.0
  0
SEQEND
  5
A98
  8
LAYER_03
  0
POLYLINE
  5
89
  8
LAYER_03
 66
     1
 10
0.0
 20
0.0
 30
0.0
 70
     1
  0
VERTEX
  5
A4C
  8
LAYER_03
 10
421.0235655883359
 20
110.9263433213821
 30
0.0
  0
VERTEX
  5
A4D
  8
LAYER_03
 10
445.2680837547321
 20
110.9263433213821
 30
0.0
 42
1.0
  0
VERTEX
  5
A4E
  8
LAYER_03
 10
449.7723539508904
 20
115.4306135175404
 30
0.0
  0
VERTEX
  5
A4F
  8
LAYER_03
 10
449.7723539508904
 20
118.4220731252238
 30
0.0
 42
1.0
  0
VERTEX
  5
A50
  8
LAYER_03
 10
445.2680837547321
 20
122.9263433213821
 30
0.0
  0
VERTEX
  5
A51
  8
LAYER_03
 10
404.2766241470487
 20
122.9263433213824
 30
0.0
 42
1.0
  0
VERTEX
  5
A52
  8
LAYER_03
 10
399.7723539508904
 20
118.4220731252242
 30
0.0
  0
VERTEX
  5
A53
  8
LAYER_03
 10
399.7723539508904
 20
115.4306135175407
 30
0.0
 42
1.0
  0
VERTEX
  5
A54
  8
LAYER_03
 10
404.2766241470486
 20
110.9263433213824
 30
0.0
  0
SEQEND
  5
A99
  8
LAYER_03
  0
POLYLINE
  5
8A
  8
LAYER_03
 66
     1
 10
0.0
 20
0.0
 30
0.0
 70
     1
  0
VERTEX
  5
A55
  8
LAYER_03
 10
464.5034975507503
 20
64.67513649993928
 30
0.0
  0
VERTEX
  5
A56
  8
LAYER_03
 10
464.5034975507503
 20
52.43061351720245
 30
0.0
 42
-1.0
  0
VERTEX
  5
A57
  8
LAYER_03
 10
459.999227354592
 20
47.92634332104414
 30
0.0
  0
VERTEX
  5
A58
  8
LAYER_03
 10
457.0077677469086
 20
47.92634332104414
 30
0.0
 42
-1.0
  0
VERTEX
  5
A59
  8
LAYER_03
 10
452.5034975507503
 20
52.43061351720245
 30
0.0
  0
VERTEX
  5
A5A
  8
LAYER_03
 10
452.5034975507503
 20
64.67513813855304
 30
0.0
  0
VERTEX
  5
A5B
  8
LAYER_03
 10
452.5034975507503
 20
93.42207312488586
 30
0.0
 42
-1.0
  0
VERTEX
  5
A5C
  8
LAYER_03
 10
457.0077677469086
 20
97.92634332104416
 30
0.0
  0
VERTEX
  5
A5D
  8
LAYER_03
 10
459.999227354592
 20
97.92634332104416
 30
0.0
 42
-1.0
  0
VERTEX
  5
A5E
  8
LAYER_03
 10
464.5034975507503
 20
93.42207312488586
 30
0.0
  0
SEQEND
  5
A9A
  8
LAYER_03
  0
POLYLINE
  5
8B
  8
LAYER_03
 66
     1
 10
0.0
 20
0.0
 30
0.0
 70
     1
  0
VERTEX
  5
A5F
  8
LAYER_03
 10
457.0077770132544
 20
348.0223459293972
 30
0.0
  0
VERTEX
  5
A60
  8
LAYER_03
 10
459.9992366209378
 20
348.0223459293972
 30
0.0
 42
1.0
  0
VERTEX
  5
A61
  8
LAYER_03
 10
464.5035068170961
 20
352.5266161255555
 30
0.0
  0
VERTEX
  5
A62
  8
LAYER_03
 10
464.5035068170961
 20
393.5180757332389
 30
0.0
 42
1.0
  0
VERTEX
  5
A63
  8
LAYER_03
 10
459.9992366209378
 20
398.0223459293972
 30
0.0
  0
VERTEX
  5
A64
  8
LAYER_03
 10
457.0077770132544
 20
398.0223459293972
 30
0.0
 42
1.0
  0
VERTEX
  5
A65
  8
LAYER_03
 10
452.5035068170961
 20
393.5180757332389
 30
0.0
  0
VERTEX
  5
A66
  8
LAYER_03
 10
452.5035068170961
 20
352.5266161255555
 30
0.0
 42
1.0
  0
SEQEND
  5
A9B
  8
LAYER_03
  0
POLYLINE
  5
8C
  8
LAYER_03
 66
     1
 10
0.0
 20
0.0
 30
0.0
 70
     1
  0
VERTEX
  5
A67
  8
LAYER_03
 10
404.2766241470505
 20
289.3765424000668
 30
0.0
  0
VERTEX
  5
A68
  8
LAYER_03
 10
445.2680837547339
 20
289.3765424000665
 30
0.0
 42
-1.0
  0
VERTEX
  5
A69
  8
LAYER_03
 10
449.7723539508922
 20
284.8722722039081
 30
0.0
  0
VERTEX
  5
A6A
  8
LAYER_03
 10
449.7723539508922
 20
281.8808125962247
 30
0.0
 42
-1.0
  0
VERTEX
  5
A6B
  8
LAYER_03
 10
445.2680837547339
 20
277.3765424000665
 30
0.0
  0
VERTEX
  5
A6C
  8
LAYER_03
 10
404.2766241470505
 20
277.3765424000668
 30
0.0
 42
-1.0
  0
VERTEX
  5
A6D
  8
LAYER_03
 10
399.7723539508922
 20
281.8808125962252
 30
0.0
  0
VERTEX
  5
A6E
  8
LAYER_03
 10
399.7723539508922
 20
284.8722722039086
 30
0.0
 42
-1.0
  0
SEQEND
  5
A9C
  8
LAYER_03
  0
POLYLINE
  5
8D
  8
LAYER_03
 66
     1
 10
0.0
 20
0.0
 30
0.0
 70
     1
  0
VERTEX
  5
A6F
  8
LAYER_03
 10
280.934035008722
 20
393.5180757332398
 30
0.0
  0
VERTEX
  5
A70
  8
LAYER_03
 10
280.934035008722
 20
352.5266161255564
 30
0.0
 42
1.0
  0
VERTEX
  5
A71
  8
LAYER_03
 10
285.4383052048803
 20
348.0223459293981
 30
0.0
  0
VERTEX
  5
A72
  8
LAYER_03
 10
288.4297648125637
 20
348.0223459293981
 30
0.0
 42
1.0
  0
VERTEX
  5
A73
  8
LAYER_03
 10
292.934035008722
 20
352.5266161255564
 30
0.0
  0
VERTEX
  5
A74
  8
LAYER_03
 10
292.934035008722
 20
393.5180757332398
 30
0.0
 42
1.0
  0
VERTEX
  5
A75
  8
LAYER_03
 10
288.4297648125637
 20
398.0223459293981
 30
0.0
  0
VERTEX
  5
A76
  8
LAYER_03
 10
285.4383052048803
 20
398.0223459293981
 30
0.0
 42
1.0
  0
SEQEND
  5
A9D
  8
LAYER_03
  0
POLYLINE
  5
8E
  8
LAYER_03
 66
     1
 10
0.0
 20
0.0
 30
0.0
 70
     1
  0
VERTEX
  5
A77
  8
LAYER_03
 10
304.2766241470505
 20
277.3765424000672
 30
0.0
  0
VERTEX
  5
A78
  8
LAYER_03
 10
345.2680837547339
 20
277.3765424000669
 30
0.0
 42
1.0
  0
VERTEX
  5
A79
  8
LAYER_03
 10
349.7723539508922
 20
281.8808125962252
 30
0.0
  0
VERTEX
  5
A7A
  8
LAYER_03
 10
349.7723539508922
 20
284.8722722039086
 30
0.0
 42
1.0
  0
VERTEX
  5
A7B
  8
LAYER_03
 10
345.2680837547339
 20
289.3765424000669
 30
0.0
  0
VERTEX
  5
A7C
  8
LAYER_03
 10
304.2766241470505
 20
289.3765424000673
 30
0.0
 42
1.0
  0
VERTEX
  5
A7D
  8
LAYER_03
 10
299.7723539508922
 20
284.872272203909
 30
0.0
  0
VERTEX
  5
A7E
  8
LAYER_03
 10
299.7723539508922
 20
281.8808125962256
 30
0.0
 42
1.0
  0
SEQEND
  5
A9E
  8
LAYER_03
  0
ENDSEC
  0
EOF
